Oops, an error
Loading. Please wait.

Grito Changa Chords

version 2
version 2

Whole song

19 views 1 this week
no commentswrite comment
1 2 3 4 5
3 more votes to show rating
add to favorites
launch autoscroll
font size
0
reset
transpose
0
reset
display chords
guitar tuner
×
Best way to learn
"Grito Changa"
Autoscroll
slow
fast
+/-
esc
set tempo
stop
ATAME: José Larralde/Grito Changa

      José Larralde
      Grito Changa/ transcripto por: Reginaldo E. Vargas
      con la colaboración de Martín y Lucas Mansilla
      regi_naldo@

INTRO:
                 (x2) 
e||------------0----------------------0----|
B||----------0-------0-----0----------0----|
G||--------1------1-----1-------2-----1----|
D||------2----------------------2-----2----|
A||----2------------------------0-----2----|
E||--0--------------------------------0----|


e||------------0--------------------------------------------------------0------------|
B||----------0--------0-----0--/5------5-----5-----4-----2-----0--------0------------|
G||--------1-------1-----1-----/6---6-----6-----4-----2-----1--------4--1------------|
D||------2--------------------------------------------------------4-----2------------|
A||----2----------------------------------------------------------------2------------|
E||--0------------------------------------------------------------------0------------|


José Larralde/Grito Changa (zamba)


E                                 B              E
 Me ofrecieron conchabo para ir tirando, para ir tirando 
                                   B                 E
el trabajo anda escaso, la paga estrecha y el lomo es ancho.
A                                                           A-LA#-B
 Porque tengo a mis hijos que a puro brazo los estoy criando
                        E               B               E
me priendo a cualquier cosa el hambre es mucho y el pan escaso.


(repite 1ra parte de la Intro)


E                                    B               E
 Clavo el hacha en el árbol, saco los yuyos, armo el andamio
                               B             E
no tengo oficio fijo de muy chiquito viví sinchando.
A                                                       A-LA#-B
 Hoy no tengo derecho ni pa'embromarme dentro 'el salario 
                E               B                E
el patrón ya me dijo que si me enfermo no se hace cargo.


(repite 1ra parte de la Intro)


A                                                      A-LA#-B
 La pucha que valgo poco si no me alcanza ni pa'cigarros
                       E              B               E
y el hueso que llevo a casa dentro del pecho me esta golpiando.
A                                                     A-LA#-B
 Si me agarra la rabia y pego el grito me estoy pensando
                 E                B               E 
que mis pobres cachorros no tienen culpa pa'darles cargo.


(repite toda la Intro)


E                                  B              E
 Que venga el sabio y diga si mi trabajo no vale de algo
                                    B               E
que el sabio me conteste si pa'tranquearla no soy un galgo.
A                                                   A-LA#-B
 Si el sabe todo eso sabe de sobra que es poco el pago
                  E                B                E
por saber tantas cosas hacen que el pobre reviente de asco.


(repite 1ra parte de la Intro)


A                                                      A-LA#-B
 La pucha que valgo poco si no me alcanza ni pa'cigarros
                       E              B               E
y el hueso que llevo a casa dentro del pecho me esta golpiando.
A                                                     A-LA#-B
 Si me agarra la rabia y pego el grito me estoy pensando
                 E                B               E 
que mis pobres cachorros no tienen culpa pa'darles cargo.


(repite 1ra parte de la Intro)

----------------------------------------------------------------------------------------
Esta es una zambita bien al estilo de José Larralde, simple pero cargada de emotividad.
 Inquietudes, criticas o sugerencias escribanme a: regi_naldo@
Suggest correction
Give kudos to tab author, rate the tab!
1 2 3 4 5
comments
print report bad tab
guest
You may want to rate the tab now too:
select rating
Wanna post a correction for this tab? Suggest correction