Oops, an error
Loading. Please wait.

Grito Changa Tab

38 views 1 this week
no commentswrite comment
1 2 3 4 5
3 more votes to show rating
add to favorites
launch autoscroll
font size
0
reset
how to read this tab
guitar tuner
×
Best way to learn
"Grito Changa"
Autoscroll
slow
fast
+/-
esc
set tempo
stop
e-|---------------------------0-----0-------|
B-|----------0----------------0-----0-------|
G-|--------1-------4---4--2---1-------------|
D-|------2------/6---6----4---2-------------|
A-|----2--------------------------2---------|
E-|-------------------------------0---------|

e-|---------------------------------0-------|
B-|----------0----------------------0-------|
G-|--------1-------4---4--2---1-------------|
D-|------2------/6---6----4---2-------------|
A-|----2--------------------------x---------|
E-|-------------------------------x---------|

e-|---------------------------------------------------------0------0---0-|
B-|--------0------------------------------------------------0---0--0---0-|
G-|------1-------4---4--/9~------9----9---8---6---4---2--1------2--1-----|
D-|----2------/6---6----/11~--11---11---9---7---6---4----2------1--2-----|
A-|--2----------------------------------------------------------2--2-----|
E-|-------------------------------------------------------0--------0-0---|

e-|--0--------0---x-------0------0-------2---------2-----0------0--|
B-|--0--------0---x-------0------0-------0---------0-----0------0--|
G-|--1------------x-------1--------------2---------2-----1---------|
D-|--2------------x-------2--------------1---------------2---------|
A-|--2------2-----x-------2----2---------2-----0---------2---------|
E-|--0------0-----x-------0----0-------------2-----------0----0----|
        Me ofrecieron conchabo para ir tirando, para ir tirando

e-|--0--------0---x-------0------0-------2---------2-------0------0--|
B-|--0--------0---x-------0------0-------0---------0-------0------0--|
G-|--1------------x-------1--------------2---------2-------1---------|
D-|--2------------x-------2--------------1-----------------2---------|
A-|--2------2-----x-------2----2---------2-----0-----------2---------|
E-|--0------0-----x-------0----0-------------2-------------0----0----|
     el trabajo anda escaso, la paga estrecha y el lomo es ancho

e-|-5-------5----------5-------5---------5-------5---------5------5--6--7-
B-|-5-------5----------5-------5---------5-------5---------5------5--6--7-
G-|-6-------6----------6-------6---------6-----------------6------6--7--8-
D-|-7-----------7------7-----------7-----7-----------7-----7------7--8--9-
A-|-7---x-------7------7---x-------7-----7---x-------7-----7---x--7--8--9-
E-|-5---x-------5------5---x-------5-----5---x-------5-----5---x--5--6--7-
    Porque tengo a mis hijos que a puro brazo los estoy criando

e-|------7---7--------------0-------0---------2-------2-----------0---0-|
B-|------7---7-----7--------0-------0---------0-------0-----------0-----|
G-|------8---8-----8--------1-----------------2-------------------------|
D-|------9---9-----9--------2-----------------1---------------------2---|
A-|--9-------------9--------2-----------------2-----------0----2--------|
E-|--7-------------7--------0----0-----0----------2-------2-------------|
     me priendo a cualquier cosa el hambre es mucho y el pan escaso

e-|---------------------------0-----0-------|
B-|----------0----------------0-----0-------|
G-|--------1-------4---4--2---1-------------|
D-|------2------/6---6----4---2-------------|
A-|----2--------------------------2---------|
E-|-------------------------------0---------|

e-|--0--------0---x-------0------0-------2---------2-----0------0--|
B-|--0--------0---x-------0------0-------0----x----0-----0------0--|
G-|--1------------x-------1--------------2----x----2-----1---------|
D-|--2------------x-------2--------------1----x----------2---------|
A-|--2------2-----x-------2----2---------2----x----------2---------|
E-|--0------0-----x-------0----0-------------------------0----0----|
    Clavo el hacha en el árbol, saco los yuyos, armo el andamio

e-|--0--------0---x-------0------0-------2---------2-------0------0--|
B-|--0--------0---x-------0------0-------0---------0-------0------0--|
G-|--1------------x-------1--------------2---------2-------1---------|
D-|--2------------x-------2--------------1-----------------2---------|
A-|--2------2-----x-------2----2---------2-----0-----------2---------|
E-|--0------0-----x-------0----0-------------2-------------0----0----|
      no tengo oficio   fijo de muy  chiquito   viví   sinchando


e-|-5-------5----------5-------5---------5-------5---------5------5--6--7-
B-|-5-------5----------5-------5---------5-------5---------5------5--6--7-
G-|-6-------6----------6-------6---------6-----------------6------6--7--8-
D-|-7-----------7------7-----------7-----7-----------7-----7------7--8--9-
A-|-7---x-------7------7---x-------7-----7---x-------7-----7---x--7--8--9-
E-|-5---x-------5------5---x-------5-----5---x-------5-----5---x--5--6--7-
       Hoy no tengo derecho ni pa' embromarme dentro 'el salario

e-|------7---7--------------0-------0---------2-------2-----------0---0--|
B-|------7---7-----7--------0-------0---------0-------0-----------0------|
G-|------8---8-----8--------1-----------------2---------------------1----|
D-|------9---9-----9--------2-----------------1----------------2---------|
A-|--9-------------9--------2-----------------2---0-------0--------------|
E-|--7-------------7--------0----0-----0----------2-------2--------------|
      el patrón   ya  me   dijo que si me  enfermo no se hace cargo

e-|-----------------------------0-----0-----|
B-|----------0-----------------0------0-----|
G-|--------1-------4---4--2---1-------------|
D-|------2------/6---6----4---2-------------|
A-|----2----------------------------2-------|
E-|---------------------------------0-------|

e|--5-------5----------5-------5---------5-------5---------5------5--6--7-
B|--5-------5----------5-------5---------5-------5---------5------5--6--7-
G|--6-------6----------6-------6---------6-----------------6------6--7--8-
D|--7-----------7------7-----------7-----7-----------7-----7------7--8--9-
A|--7---x-------7------7---x-------7-----7---x-------7-----7---x--7--8--9-
E|2/5---x-------5------5---x-------5-----5---x-------5-----5---x--5--6--7-
     La pucha que valgo poco si no me   alcanza  ni  pa'  cigarros

e-|------7---7--------------0-------0---------2-------2-----0------0-----|
B-|------7---7-----7--------0-------0---------0-------0-----0------0-----|
G-|------8---8-----8--------1-----------------2-------------1------------|
D-|------9---9-----9--------2-----------------1-------------2------------|
A-|--9-------------9--------2-----------------2----0--------2------------|
E-|--7-------------7--------0----0-----0----------2---------0---0--------|
    y el hueso que llevo a casa dentro del pecho me esta golpiando

e-|--5-------5----------5-------5---------5-------5---------5------5--6--7-
B-|--5-------5----------5-------5---------5-------5---------5------5--6--7-
G-|--6-------6----------6-------6---------6-----------------6------6--7--8-
D-|--7-----------7------7-----------7-----7-----------7-----7------7--8--9-
A-|--7---x-------7------7---x-------7-----7---x-------7-----7---x--7--8--9-
E-|--5---x-------5------5---x-------5-----5---x-------5-----5---x--5--6--7-
     SI me agarra LA  rabia y  pego  el  grito me estoy pensando

e-|------7---7--------------0-------0---------2-----------2----0------0---|
B-|------7---7-----7--------0-------0---------0-----------0----0------0---|
G-|------8---8-----8--------1-----------------2----------------1----------|
D-|------9---9-----9--------2-----------------1----------------2----------|
A-|--9-------------9--------2-----------------2-------0--------2----------|
E-|--7-------------7--------0----0-----0-----------2-2-2-------0---0------|
     que mis  pobres     cachorros no tienen culpa pa' darles cargo

e-|---------------------------0-----0-------|
B-|----------0----------------0-----0-------|
G-|--------1-------4---4--2---1-------------|
D-|------2------/6---6----4---2-------------|
A-|----2--------------------------2---------|
E-|-------------------------------0---------|

e-|---------------------------------0-------|
B-|----------0----------------------0-------|
G-|--------1-------4---4--2---1-------------|
D-|------2------/6---6----4---2-------------|
A-|----2--------------------------x---------|
E-|-------------------------------x---------|

e-|--------------------------------------------------------0------0---0-|
B-|--------0-----------------------------------------------0---0--0---0-|
G-|------1-------4---4--/9------9----9---8---6---4---2--1------2--1-----|
D-|----2------/6---6----/11--11---11---9---7---6---4----2------1--2-----|
A-|--2---------------------------------------------------------2--2-----|
E-|------------------------------------------------------0--------0-0---|

(repite lo mismo)
Que venga el sabio y diga si mi trabajo no vale de algo.
Que el sabio me conteste, si pa' tranquiarla no soy un galgo.
Si el sabe todo eso, sabe de sobra que es poco el pago.
Por saber tantas cosas, hacen que el pobre reviente de asco.

La pucha Que valgo poco, si no me alcanza ni pa' cigarro,
y el hueso que llevo a casa dentro del pecho me está golpeando.
Si me agarra la rabia y pego el grito, me estoy pensando,
que mis pobres cachorros, no tienen culpa pa' darles cargo.

e-|-------------------------------------|
B-|----------0------------------0-------|
G-|--------1-------4---4--2-----1-------|
D-|------2-------6---6----4---2---------|
A-|----2--------------------------------|
E-|-------------------------------------|


Dedicada pa' lo pibe de lujan!!!

la banda loca del "quinto"
Suggest correction
Give kudos to tab author, rate the tab!
1 2 3 4 5
comments
print report bad tab
guest
You may want to rate the tab now too:
select rating
Wanna post a correction for this tab? Suggest correction