Oops, an error
Loading. Please wait.

Hombre Tab

29 views 1 this week
no commentswrite comment
1 2 3 4 5
3 more votes to show rating
add to favorites
launch autoscroll
font size
0
reset
how to read this tab
guitar tuner
×
Best way to learn
"Hombre"
Autoscroll
slow
fast
+/-
esc
set tempo
stop
===HOMBRE====

Transporte en el tercer traste

Intro:2 veces

e|----0-0--2-2-------0-0-0--2-2---------0-0--2-2--------0-0-0---2-2-2-----0---|
B|----2-2--2-2-------2-2-2--2-2---------0-0--0-0--------0-0-0---0-0-0-----0---|
G|----2-2--2-2-------2-2-2--2-2---------1-1--1-1--------1-1-1---1-1-1-----1---|
D|----------------------------------------------------------------------------|
A|-0--------------0-----------------------------------------------------------|
E|-----------------------------------0---------------0------------------------|


Arpegio:
       LA                  MI
e|--------------------------------------------|
B|----2--------3----------0--------3----------|
G|------2------0------------1------1----------|
D|--------2-------------------2---------------|
A|--0------------------2----------------------|
E|--------------------------------------------|


Todo el tema sobre el arpegio

No tengo mas fortuna
que estos dos brazos que Dios ma ha dao,
si no han tocao la lujna
es porque no han probao.
Mis brazos hacen todo
cinchando por un pan bien ganao,
y no le encuentro el modo
pa'que esten olvidaos.

Estribillo a)
Y no le encuentro el motivo
y Dios es testigo
que lucho conmigo al pensar,
como lucho sin desgano
SI MI propio hermano
me puede olvidar.


Le he preguntao al tiempo 
donde lleva el amor el de al lao,
me contestó sonriendo
que se habia extraviao.
Me pregunté a mi mismo
donde se habrá refugiao,
lo encontró el egoismo
y lo tiene encerrao.

Estribillo a)

Abrí los ojos hemano
no te cegués que vas a sonar
por mas montao que vayas
el tiempo te ha de ganar.
La rodada es pareja
y vos no te habrás de salvar,
pisoteada es la tierra
pero al fin te la da.


Estribillo a)


Y no le encuentro el motivo
y Dios es testigo
que lucho conmigo al pensar
que reventando al de enfrente
revienta o reviente
vamos a reventar.
Suggest correction
Give kudos to tab author, rate the tab!
1 2 3 4 5
comments
print report bad tab
guest
You may want to rate the tab now too:
select rating
Wanna post a correction for this tab? Suggest correction