Oops, an error
Loading. Please wait.

Si De Rabia Nomas Tab

37 views 3 this week
no commentswrite comment
1 2 3 4 5
3 more votes to show rating
add to favorites
launch autoscroll
font size
0
reset
how to read this tab
guitar tuner
×
Best way to learn
"Si De Rabia Nomas"
Autoscroll
slow
fast
+/-
esc
set tempo
stop
Tabulado por: Reginaldo E. Vargas
regi_naldo@
      
INTRO:
                                                            
e||----------------------------------------------------------------------|
B||----------------------------------------------------------0--1---1----|
G||-----------------------------------------/4---2--1--------1--2---2----|
D||---------------------0--2--3--2^3^2-0-2-------------3--2--0--2---2----|
A||------------0--2--3---------------------------------------2--0---0----|
E||---0--1--3------------------------------------------------------------|


e||---1--0---------------------------------|
B||---------3--1--0------------------------|
G||------------------2--0------------------|
D||------------------------3--2--0---------|
A||---0--0--0--0--0--0--0--0--0--0--3--2---|
E||---------------------------------0--0---|


     (REm)        (LAm)         (MI)                     (X 2)
e||------1-------------0-------------0--------|-----0--------0--------0--|
B||---------3-------------1-------------0-----|--------1--------1--------|
G||------------2-------------2-------------1--|--------------------------|
D||---0-------------2-------------------------|-----------3--------2-----|
A||-------------------------------2-----------|--0-----------------------|
E||-------------------------------------------|--------------------------|


e||-------0--------0-------------0--------0--------0---------|
B||----------0--------0-------------0--------0---------------|
G||----------------------------------------------------------|
D||-------------3--------2-----------------------------------|
A||----2--------------------3-2--------3--------2------0-----|
E||----------------------------------------------------------|


José Larralde/Si de rabia nomás


LAm                           MI
Ande diablos se escuenden las penas
                              LAm
que las quiero achurar y no encuentro
                           MI
ni una sola que ruempa mis venas
                            LAm
y me corte sin trampa el aliento.
                           MI
Por que diablos se meten adentro
                        LAm
como bicho que come la carne
                             MI
pena maula que dentra en el centro
                              LAm
justo al medio de todo lo que arde.
                             MI
Pena maula que dentra en el centro
                              LAm
justo al medio de todo lo que arde.


Llevo el cuero de ajuera curtido
pa'que aguante la vida que tengo
mas la vida no tiene sentido
si de pena se vive muriendo.
De ande vienen que nunca las veo
si parece que nacen conmigo
y se agrandan y ruempen el pecho
y me dejan como árbol herido.
Y se agrandan y ruempen el pecho
y me dejan como árbol herido.
 

Repite (INTRO)


Ni una flor cuando peno me crece
y no siento en mis ramas ni un nido
sólo el viento me aturde y parece
que me duebla y me aplasta vencido.
Pero no han de secarse mis raices
mientras caiga un agüita e'rocío
y un gorrión que precise mi sombra
y un cachito de sol que sea mio.
Y un gorrión que precise mi sombra
y un cachito de sol que sea mio.


Ande diablos se escuenden las penas
si con todo han de ver que me aguanto
no las lloro pa'que se hagan güenas
si de rabia nomás te las canto. 
No las lloro pa'que se hagan güenas
si de rabia nomás te las canto. 


nota: este ritmo de milonga en particular, se toca alternando en la 4ta cuerda 
      los casilleros (3) y (2) respectivamente.(Ver Intro).
--------------------------------------------------------------------------------
Espero que disfruten esta hermosa milonga del gran decidor 
y guitarrero don José Larralde. A pulsar la encordada 
aparcero!!! 
regi_naldo@
Suggest correction
Give kudos to tab author, rate the tab!
1 2 3 4 5
comments
print report bad tab
guest
You may want to rate the tab now too:
select rating
Wanna post a correction for this tab? Suggest correction