Oops, an error
Loading. Please wait.

Un Perro Muerto... Nomás Chords

10 views 1 this week
no commentswrite comment
1 2 3 4 5
3 more votes to show rating
add to favorites
launch autoscroll
font size
0
reset
transpose
0
reset
simplify chords
display chords
guitar tuner
×
Best way to learn
"Un Perro Muerto... Nomás"
Autoscroll
slow
fast
+/-
esc
set tempo
stop
Intro: Punteo 1 (x 2) - punteo 2 - punteo 3 - Dm A7 Dm A7 -  punteo 1


Lo ví, tirao, de pasada en un costado de la huella,
                                               Dm - A7
un perro muerto, que al final, poco interesa.
                         Dm
Seguro toreó algún auto y cayó bajo una rueda,
                   A7
o tal vez de puro zonzo ni vió el peligro siquiera,
                   Dm  
y por ser manso y confiado encaró sin darse cuenta,
A7
que también pueden los perros ser distraidos unas vueltas,
Dm                                          A7            Punteo 1 - Dm
  y andar como los cristianos cabresteando alguna pena.

Y como yo esa tarde iba de cabeza fresca,
seguí pensando en su muerte en un costado de la huella,
y lo empezé a acomodar adentro de mis ideas,
lo hice mío o de otras gentes, pa'l caso, sea como sea,
                                                    Dm
pero se me hizo que el pobre tenia dueño y de alguien era,
                A7
lo imaginé seguidor de algun caballo, campo afuera,
                      Dm
ayudando a su patrón a lidiar con sus ovejas,
                     A7
o convertido en guardián de alguna casa campera.
Dm                                   A7
  Y me pareció escucharlo ladrando a una comadreja,
                      Dm
o esperando a algún ratón junto a una pila de leña,
                         A7                                 Punteo 2
que los perros, compañero, más de un servicio nos prestan.
                                                 A7
Por ahi, me dió por pensar, siguiendo con mi zonzera,
                                                 Dm
que pudo ser de un gurí que lo acompañó a la escuela
                                                 A7                
y mientras él estudiaba, salió a campear una presa,
                                Dm
y sólo encontró la muerte en un costado de la huella.
                               A7
Y ahí sí... ahí la idea se me puso más triste que la otra idea,
                           Dm
porque un perro pa' un muchacho, es pue'l campo aunque no crea,
A7                                                 Punteo 4 -    
amigo, hermano y juguete, pa' pasar horas enteras.
Dm                      A7
  Se llamaría guardián?, barbucho?, pinta?, sorpresa?, bravo?, gaucho?,
    Dm
capitán??... o el nombre que le pusieran si ahora...
A7                                     Dm
 total está muerto y eso tampoco interesa.
A7 
Solamente hay que pensar que en algún rancho lo esperan
  Dm
y no faltará el que diga que se fue dentrás de una perra,
                                    A7                 Punteo 1
pensando que el muy ladino ni extrañará la querencia.
                               A7
Ya nunca saldrá por el campo bajo las 'trieguas' 'el que muenta,
        Dm
y seguirá a un muchachito que hoy no entristece en su ausencia,
             A7
ni cuidará de las casas en un costado de la puerta.
Dm                                 A7
 Por eso, pa' qué pensar, si esto nada 'arrimedea',
                                                  Punteo 2
y estas cosas al final se olvidan como cualquiera.
Dm      A7                                         Dm
  Lo ví, tirao de pasada en un costado de la huella,
     A7                                              Punteo 2 - Dm (5to traste)
un perro muerto nomás, que al final, poco interesa...


Punteo 1:

e-----1-s-3-s-5--4-s-5----5-s-1--]
B-----3-s-5-s-6--5-s-6----6-s-3--]
G---2----------------------------]
D-0------------------------------]
A--------------------------------]
E--------------------------------]

Punteo 2:

e-----1-s-3-s-5--4-s-5-s-6--5-4-5---3-2-s-3--]
B----3--s-5-s-6--5-s-6-s-8--6-5-6---5-4-s-5--]
G---2----------------------------------------]
D-0------------------------------------------]
A--------------------------------------------]
E--------------------------------------------]

Punteo 3:

e----------------------------------------------------------------------------------]
B----2--3--4--5---5--6--7--8--8--9--10--11---10--9--10--8--7--8--6--5--6--5--4--5--]
G---0--0--0--0---0--0--0--0--0--0--0---0----0---0--0---0--0--0--0--0--0--0--0--0---]
D--2--3--4--5---5--6--7--8--8--9--10--11---10--9--10--8--7--8--6--5--6--5--4--5----]
A----------------------------------------------------------------------------------]
E----------------------------------------------------------------------------------]

Punteo 4:


e-----1-s-3-s-5--4-s-5-s-6---8-s-10---8--s-6-s-5-s-3-s-1--]
B----3--s-5-s-6--5-s-6-s-8---9-s-11---10-s-8-s-7-s-5-s-3--]
G---2-----------------------------------------------------]
D-0-------------------------------------------------------]
A---------------------------------------------------------]
E---------------------------------------------------------]
Suggest correction
Give kudos to tab author, rate the tab!
1 2 3 4 5
comments
print report bad tab
guest
You may want to rate the tab now too:
select rating
Wanna post a correction for this tab? Suggest correction