Oops, an error
Loading. Please wait.

Para Saber De Amor Chords

19 views 3 this week
no commentswrite comment
1 2 3 4 5
3 more votes to show rating
add to favorites
launch autoscroll
font size
0
reset
transpose
0
reset
display chords
guitar tuner
×
Best way to learn
"Para Saber De Amor"
Autoscroll
slow
fast
+/-
esc
set tempo
stop
Intro:
Intro:

E)-10--8-7----------7-10/12-10--8-7-----7-8-10--8-7-------
B)---------10--8-10------------------10--------------10---
G)--------------------------------------------------------
D)--------------------------------------------------------
A)--------------------------------------------------------
E)--------------------------------------------------------

-------7-10/12-10--10-8-7----------------------------------
-8-10--------------------10---8--8-------------------------
-----------------------------------------------------------
-----------------------------------------------------------
-----------------------------------------------------------
-----------------------------------------------------


G              G 
Para saber de amor
C            D
Alguien ha dicho

Hay que cambiar de lecho
      G
Cada noche.


Cambiar de besos
         C
Y de perfume
            D
Porque cada mujer
             G
Guarda un secreto.


Que hay que cambiar de cama 
      Bm      C
Cada día

Para saberlo todo
      D
Del amor.

        G
Se equivoca

El amor no es volar 
          Bm
De boca en boca.

             C
Que él no precisa
             D
Ni lugares ocultos
                G
Ni hoteles de autopista
                  C            D
Ni escaleras sin luz

Ni un bar de copas.

(los acordes se repiten)

Se equivoca 
El amor es la luz
Que llega un día

Que el sin buscarlo
Aparece de pronto
Y te cambia la vida
Y en el arte de amar
Nos hace sabios.

INTRO.

Para saber de amor
Alguien ha dicho
Hay que probar mil frutas 
Diferentes.

Que cada cuerpo
Es como un libro
En el que descubrir
Cada misterio.

Que degustarlo todo
Es necesario
Para saberlo todo
Del amor.

Se equivocan 
El amor no es probar
Cada manzana

Que el no precisa
Aventura más loca
Que su loca aventura
Ni concibe un sabor
Más exquisito.
Suggest correction
Give kudos to tab author, rate the tab!
1 2 3 4 5
comments
print report bad tab
guest
You may want to rate the tab now too:
select rating
Wanna post a correction for this tab? Suggest correction