Oops, an error
Loading. Please wait.

El Tiempo Es Olvido Tab

version 2
version 2

Whole song

31 views 1 this week
no commentswrite comment
1 2 3 4 5
3 more votes to show rating
add to favorites
launch autoscroll
font size
0
reset
how to read this tab
guitar tuner
×
Best way to learn
"El Tiempo Es Olvido"
Autoscroll
slow
fast
+/-
esc
set tempo
stop
      Riff 1
e-|--------------------------------------------------------|---
B-|--------------------------------------------------------|--
G-|-----2-----3-----7-----5--------2-----3------7------7---|--
D-|----0-0---0-0---0-0---0-0------0-0---0-3----0-0----0-0--|---
A-|--------------------------------------------------------|---
E-||-2------3-----6-----5-----|--2-----3------6------5-----|---
   |__________parte 1_________|__________parte 2___________|

     Riff 2
e-|-----5------6-------10-----------8-------|-
B-|----3-3----3-3---------------------------|-
G-|---------0--------7---7--------7---7-----|-
D-|--4------|--------8------------7---------|-
A-|--|------|--------|------------|---------|-
E-|--|------|--------|------------|---------|-
     |      |        |            |
e-|--|------|--------|-----------12~--------|-
B-|--|------|-------11~-----------|---------|-
G-|--2~-----9~------------------------------|-
D-|-----------------------------------------|-
A-|-----------------------------------------|-
E-|-----------------------------------------|-


e-|-----5------6-------10-----------8-------|-
B-|----3-3----3-3---------------------------|-
G-|---------0--------7---7--------7---7-----|-
D-|--4------|--------8------------7---------|-
A-|--|------|--------|------------|---------|--
E-|--|------|--------|------------|---------|-
     |      |        |            |
e-|--|------|--------|------------|---------|-
B-|--|------|-------11~-----------13~-------|-
G-|--2~-----9~------------------------------|-
D-|-----------------------------------------|-
A-|-----------------------------------------|-
E-|-----------------------------------------|-


Riff 3
e-|-----------------------------------------|-
B-|----4----4------3-----3------------------|-
G-|---5-5--5-5----0-0---0-0-----------------|-
D-|-----------------------------------------|-
A-|-3-----3------1-----1--------------------|-
E-|-----------------------------------------|-


Riff 1
El ojo impacible del sol
quema nuestras almas
condenadas a no recordar
en este llano en llamas

Riff2


Riff 1
Habituados a languidecer
bajo el sol ardiente
olvidamos el verso mejor
su ritmo y su sonido

Riff3
y olvidamos a quienes nos roban el porvenir

Riff 1 (parte2)
bajo el ojo impacible del sol
el tiempo es olvido

F6sus4/A#            G#              Gm
           Que quedara de mi
                         F           F6sus4/A#
si hasta el sol se desintegra
            G#                Gm
tal vez mi voz sera
                  F
el eco de una estrella

Riff 2

Riff 1
Aguardamos debajo del sol
que quema nuestros huesos
en espera de un tiempo mejor
tal vez despues de muertos

Riff 3
Mientras tanto borramos las huellas del porvenir

Riff 1 (parte 2)
bajo el ojo impacible del sol
el tiempo es olvido

F6sus4/A#            G#              Gm
           Que quedara de mi
                         F           F6sus4/A#
si hasta el sol se desintegra
            G#                Gm
tal vez mi voz sera
                  F
el eco de una estrella


SOLO
e-|-------------------------------------------------------|--
B-|-------------------------------------------------------|--
G-|----------------------------------6----------6---------|--
D-|---------------6-6-6h8-8~---8-6-8---8---8-6-8--8-------|--
A-|------------6-8----------------------------------------|--
E-|--6---6-8-9--------------------------------------------|--

e-|---------------------------------------------------8--9-9-9/11--11~-|
B-|-----------------------------9----9-9/11--11-11-11-----|--
G-|-6-6-8--8/10-10-10-10-10--10~--10----------------------|--
D-|--8-----------------------------------------------------|---
A-|-----------------------------------------------------------|-
E-|-----------------------------------------------------------|

e-|-11-9-11---13-------------9--------9---9~-9~-9~---|--
B-|--------------11--11-9-11---11-------11-----------|--
G-|--------------------------------------------------|--
D-|--------------------------------------------------|--
A-|--------------------------------------------------|--
E-|--------------------------------------------------|--


F6sus4/A#            G#              Gm
           Que quedara de mi
                         F           F6sus4/A#
si hasta el sol se desintegra
            G#                Gm
tal vez mi voz sera
                  F
el eco de una estrella


Acordes

     F6sus4/A#    G#     Gm    F
e-|-----6---------4------3-----1----|-
B-|-----6---------4------3-----1----|--
G-|-----7---------5------3-----2----|--
D-|-----8---------6------5-----3----|--
A-|-----8---------6------5-----3----|--
E-|-----6---------4------3-----1----|--
Suggest correction
Give kudos to tab author, rate the tab!
1 2 3 4 5
comments
print report bad tab
guest
You may want to rate the tab now too:
select rating
Wanna post a correction for this tab? Suggest correction