Oops, an error
Loading. Please wait.
42 views 1 this week
no commentswrite comment
1 2 3 4 5
3 more votes to show rating
add to favorites
×
Save as Personal and add changes to this tab that will be seen only by you. Learn more ›
×
You can save this tab as Personal to edit and correct it or add notes. All changes will be seen only by you. Learn more »
save as personal
new!
launch autoscroll
font size
0
reset
how to read this tab
guitar tuner
Autoscroll
slow
fast
+/-
esc
set tempo
stop
Esta colaboración es para ustedes, tóquenla, votenla, disfrútenla, etc..


            Estoy tan solo estoy triste etc...
e-|-------------------------------------|------------------------
B-|------3--------7---------6-----------|------------------------
G-|-----0--------5---------7------------|------------------------
D-|----2--------7---------7-------------|------------------------
A-|-3--------6---------5----------------|------------------------
E-|-------------------------------------|------------------------

    Quien vendrá en la nueva brisa que penetra
e-|------1-------1--------------------|------------------------
B-|-----1-------0------------3--------|------------------------
G-|----2-------2------------0---------|------------------------
D-|--0--------0------------2----------|------------------------
A-|--------------------3-------------|------------------------
E-|----------------------------------|------------------------

    Por la grietas  de  mi    nido     quien         insiste
e-|--------5--------------------7----------------7-----------------|---
B-|----5-----5---5---------10----10-10-------8----8--8-------------|--
G-|------4-----4----------8---8----8--------7--7----7--------------|
D-|--4------------------9------------------9-----------------------|----
A-|----------------------------------------------------------------|--
E-|----------------------------------------------------------------|--

     En  anunciarse     en    el     deseo
e-|--------9------------------5-----------5-----|------------------------
B-|-----8----8---8--------6-----6---6-----6-----|------------------------
G-|---6--6-----6--------7---7-----7-------7-----|------------------------
D-|--7----------------7-------------------7-----|------------------------
A-|---------------------------------------------|---------------------
E-|---------------------------------------------|------------------------

    Quien            que           no         veo            todaviiiiaa
e-|-----------10------------------10------------------8-------------4----|
B-|-----10------10--10--------9-----9---9--------10----10---10-----5-----|
G-|---9----9-------9--------7---7-----7---------9---9-----9-------5------|
D-|-9---------------------9------------------10------------------6-------|
A-|----------------------------------------------------------------------|
E-|----------------------------------------------------------------------|

    Ven persona secreta, ven te llamo,  veeeeeeeeeeeeeeeeeeeeeeeeen etc.?
e-|-----------------------------------------------------------------------|
B-|--5--5----2--2-----6--6------3--3------8?-8---6-5-----4--4----3------3-|
G-|--4--4----3--3-----5--5------4--4------7--7---6-6-----5--5----4-----4--|
D-|-------------------------------------------------------------------0---|
A-|-4--4-------------5--5----------------7--7-----------5--5---------3----|
E-|---------2--2---------------3--3-------------5---------------3---------|
Suggest correction
Give kudos to tab author, rate the tab!
1 2 3 4 5
comments
print report bad tab
guest
Wanna post a correction for this tab? Suggest correction