Oops, an error
Loading. Please wait.

Quiero Y Necesito Tab

49 views 1 this week
no commentswrite comment
1 2 3 4 5
3 more votes to show rating
add to favorites
launch autoscroll
font size
0
reset
how to read this tab
guitar tuner
×
Best way to learn
"Quiero Y Necesito"
Autoscroll
slow
fast
+/-
esc
set tempo
stop
Esta rola con otros acordes tambien queda bien pero esta es la verdadera, asi la toca 
Jose Manuel espero que les guste.


Intro:Requinto
E/----------------------------------------------
A/----------------------------------------------
D/----------------------------------------------
G/----------------------------------------------
b/--8----------------------------13-------------
e/-----8-8-8-8-10-12-15-12-15-13----13-12-------


E/----------------------------------------------
A/----------------------------------------------
D/----------------------------------------------
G/----------------------------------------------
b/--8-------------------------------------------
e/-----8-8-8-8-10-12-15-12-15-13-12-8-----------
 
 
  G        D
Quiero, quiero,
  C         G
quiero y necesito 

G        D
Quiero, quiero,
  C         G
quiero y necesito 
 
 G                      D
Mirarme otra vez en tus ojos
             C                    G
quedarme contigo, fundirme en tu ser
      D             C          G
amanecer siendo el sol de tus valles
      D           C        G
amanecer junto a ti, amanecer.


G        D
Quiero, quiero,
  C         G
quiero y necesito 
 
G        D
Quiero, quiero,
  C         G
quiero y necesito 
 
                       D
Sembrarte tierra prometida
                   C               G
y que un soplo de vida te haga florecer
      D          C          G
amanecer dando gracias al cielo
         D           C         G
y anochecer junto a ti, anochecer.


G        D
Quiero, quiero,
  C         G
quiero y necesito 
 
G        D
Quiero, quiero,
  C         G
quiero y necesito 
 

                         D
Borrar de tu alma los temores
             C                    G
y que te enamores de mi más que ayer
        D       C          G
y amanecer enredado en tu talle
      D           C        G
amanecer junto a ti, amanecer.
      


      D             C          G
amanecer siendo el sol de tus valles
      D           C        G
amanecer junto a ti, amanecer.


Al ultimo se hace un requinto que va asi:

E/----------------------------------------------
A/----------------------------------------------
D/----------------------------------------------
G/----------------------------------------------
b/--8-------------------13----13----------------
e/-----8-8-8-8-10-12-15----13----12-8
Suggest correction
Give kudos to tab author, rate the tab!
1 2 3 4 5
comments
print report bad tab
guest
You may want to rate the tab now too:
select rating
Wanna post a correction for this tab? Suggest correction