Oops, an error
Loading. Please wait.

Regalo A Mi Medida Tab

version 1
version 1

Whole song

31 views 1 this week
no commentswrite comment
1 2 3 4 5
3 more votes to show rating
add to favorites
×
Save as Personal and add changes to this tab that will be seen only by you. Learn more ›
×
You can save this tab as Personal to edit and correct it or add notes. All changes will be seen only by you. Learn more »
save as personal
new!
launch autoscroll
font size
0
reset
how to read this tab
guitar tuner
Autoscroll
slow
fast
+/-
esc
set tempo
stop
   C
e|-----------------0---------------------
B|-1-------3-h-1-------3---1---0---1-----
G|---0-----------0---0---0---0---0-------
D|-----2---------------------------------
A|-3-----3-------------------------------
E|---------------------------------------
   Am
e|-----------------0---------------------
B|-----1---3-h-1-------3---1---0---1-----
G|---2---2-------2---2---2---2---2-------
D|---------------------------------------
A|-0-------------------------------------
E|---------------------------------------
   F
e|-----------------1---------------------
B|-----1---3-h-1-------3---1---0---1-----
G|---2---2-------2---2---2---2---2-------
D|---------------------------------------
A|---------------------------------------
E|-1-------------------------------------

A|-----2-3-5-2-3-5-----------------------
E|-3-5-----------------------------------

C                       Am
Cuando tu mirada me llego
                        F
mi mundo gris se ilumino
                   G
escalofrios van pegandole
                     C
a mi alma esta pasion

C                           Am
y cuando tu sonrisa me llego
                       F
la alegre nota aparecio

es la tonada que ahora
G                         C
canta enamorado el corazon

F
Eres de dios
   G         C E7 Am
regalo ami medi-i-da
F             G               C   E7    Am      F
y le rogo al viento tu cancion uo,ho,oh,ho,oh,oh,oh
F             G
y le rogo al viento tu cancion

   C
e|-----------------0---------------------
B|-1-------3-h-1-------3---1---0---1-----
G|---0-----------0---0---0---0---0-------
D|-----2---------------------------------
A|-3-----3-------------------------------
E|---------------------------------------
   Am
e|-----------------0---------------------
B|-----1---3-h-1-------3---1---0---1-----
G|---2---2-------2---2---2---2---2-------
D|---------------------------------------
A|-0-------------------------------------
E|---------------------------------------
   F
e|-----------------1---------------------
B|-----1---3-h-1-------3---1---0---1-----
G|---2---2-------2---2---2---2---2-------
D|---------------------------------------
A|---------------------------------------
E|-1-------------------------------------

A|-----2-3-5-2-3-5-----------------------
E|-3-5-----------------------------------

C Am F G

C                        Am
Ahora que tu beso florcio
                      F
en mi decierto corazon
                    G
hay mariposas aleteandome
                     C
en el pecho este amor

F
Eres de dios
   G         C E7 Am
regalo ami medi-i-da
F             G               C   E7    Am      F
y le rogo al viento tu cancion uo,ho,oh,ho,oh,oh,oh
F             G               C
y le rogo al viento tu cancion

F
Eres de dios
   G         C E7 Am
regalo ami medi-i-da
F             G               C   E7    Am      F
y le rogo al viento tu cancion uo,ho,oh,ho,oh,oh,oh
F             G
y le rogo al viento tu cancion

   C                                    C
e|-----------------0--------------------0---
B|-1-------3-h-1-------3---1---0---1----1---
G|---0-----------0---0---0---0---0---0--0---
D|-----2--------------------------------2---
A|-3-----3------------------------------3---
E|--------------------------------------3---
Suggest correction
Give kudos to tab author, rate the tab!
1 2 3 4 5
comments
print report bad tab
guest
Wanna post a correction for this tab? Suggest correction