Oops, an error
Loading. Please wait.

Regalo A Mi Medida Tab

version 2
version 2

Whole song

27 views 1 this week
no commentswrite comment
1 2 3 4 5
3 more votes to show rating
add to favorites
launch autoscroll
font size
0
reset
how to read this tab
guitar tuner
×
Best way to learn
"Regalo A Mi Medida"
Autoscroll
slow
fast
+/-
esc
set tempo
stop
Un saludo pa toda la banda de aki de san hilario,
y pos ay les va esta rolita, muy buena por cierto
aunque no es muy de mi gusto este cantante, hay
que admitir que la cancion esta muy buena...


INTRO

Guitarra 1

      C                **                     Am

|-----------0-------------------0--------||-----------0-------------------0--------|
|----0h1------1---1-------0h1-----1---1--||----0h1------1---1------0h1------1---1--|
|---0----0-----0-------0------0-----0----||---2-----2-----2-------2-----2-----2----|
|----------------------------------------||----------------------------------------|
|-3-------------------3------------------||-0-------------------0------------------|
|----------------------------------------||----------------------------------------|


      F                                    G
|---------1-----------------1--------||---------3-------------------3--------|
|-----1-----1---1-------1-----1---1--||-----3-----3---3---------3-----3---3--|
|-------2-----2-----------2-----2----||---0---0-----0---------0---0-----0----|
|------------------------------------||--------------------------------------|
|---2-----------------2--------------||--------------------------------------|
|-1-----------------1----------------||-3-------------------3----------------|

Requinto **

Guitarra 2 (al  mismo tiempo que los acordes anteriores)

|--------------8h10---10h12 12-------------------------------------------------|
|--------8h10-------------------10-10-----------------------------5-6-5--------|
|--7h9----------------------------------5h7--5h7p5----------5h7-7--------------|
|---------------------------------------------------7-7--7---------------------|
|------------------------------------------------------------------------------|
|------------------------------------------------------------------------------|


C                C/B  Am
Cuando tu mirada me llegó
                      F
Mi mundo gris se iluminó
                    G
Escalofríos van pegandole
                     C
A mi alma esta pasión


                    C/B  Am
Y cuando tu sonrisa me llegó
                     F
La alegre nota apareció

Es la tonada que ahora
 G                        C
Canta enamorado el corazón


F
Eres de Dios
  G           C C/B Am*
Regalo a mi medida
      F        G               C
Y le robo al viento tu canción
    C/B   Am*
Uoh oh oh oh
      F        G
Y le robo al viento tu canción


INTRO Guitarra 1

C  C/B  Am  F  G


C                  C/B   Am
Ahora que tu beso florecio
                     F
En mi desierto corazón
                  G
Ay mariposas aleteandome
                   C
En el pecho este amor


F
Eres de Dios
  G           C C/B Am*
Regalo a mi medida
      F        G               C
Y le robo al viento tu canción
    C/B   Am*
Uoh oh oh oh
      F        G               C
Y le robo al viento tu canción

F
Eres de Dios
  G           C C/B Am*
Regalo a mi medida
      F        G               C
Y le robo al viento tu canción


FINAL
            C                                             C

|-----------------------------------------------------------0-------|
|--------0h1p0---1---0----------0h1p0----3---1---0h1-------1--------|
|-----0-------0---0---0-------0------0----0---0-----------0---------|
|--------------------------------------------------------2----------|
|--3----------------------3--------------3---3---3------3-----------|
|-------------------------------------------------------------------|


* El asterisco significa que son dos tiempos
** Comienzo del requinto


    C/B

1   0
2   3
3   0
4   0
5   2
6   0
Suggest correction
Give kudos to tab author, rate the tab!
1 2 3 4 5
comments
print report bad tab
guest
You may want to rate the tab now too:
select rating
Wanna post a correction for this tab? Suggest correction