Oops, an error
Loading. Please wait.

Sublime Maldición Tab

137 views 6 this week
no commentswrite comment
1 2 3 4 5
3 more votes to show rating
add to favorites
launch autoscroll
font size
0
reset
how to read this tab
guitar tuner
×
Best way to learn
"Sublime Maldición"
Autoscroll
slow
fast
+/-
esc
set tempo
stop
esta es una forma facil de tocarla y suena bastante bien
aun mejor que la vercion que ya esta de cualquier modo aviso que
tengo el archivo en GP (GuitarPro) si le interesa o por
Cualquier duda escriban a mi correo, con gusto contestare

rhinobatos_88@


Guitarra

E||--8----------10--------|
B||-----10----------10----|
G||---------10------------|
D||-----------------------|
A||-----------------------|
E||-----------------------|

(Entra guitarra con rasgueo )
Los acorde van en este orden TODA LA CANCION

(Am del primer compas)

 F - C - E7 - Am - F - C - E7 - Am

--8----------10------|
-------10--------10--|
---------------------|
---------------------|
---------------------|
---------------------|


--8----------8---------|-----------------|
-----10---------10--8--|--L--------------|
---------10------------|-----9-----------|
-----------------------|-----------------|
-----------------------|-----------------|
-----------------------|-----------------|


--------------------12--|
---------8--10--12------|
--9--10-----------------|
------------------------|
------------------------|
------------------------|


--12----10------------|
--------------13--12--|
----------------------|
----------------------|
----------------------|
----------------------|


--12----10------------|--12----8---------|
--------------13--12--|------------------|
----------------------|------------------|
----------------------|------------------|
----------------------|------------------|
----------------------|------------------|


--8----------10--------|
-----10----------10----|
---------10------------|
-----------------------|
-----------------------|
-----------------------|


--8----------10------|
-------10--------10--|
---------------------|
---------------------|
---------------------|
---------------------|


--8----------8---------|-----------------|
-----10---------10--8--|--L--------------|
---------10------------|-----9-----------|
-----------------------|-----------------|
-----------------------|-----------------|
-----------------------|-----------------|


--------------------12--|
---------8--10--12------|
--9--10-----------------|
------------------------|
------------------------|
------------------------|


--12----10------------|
--------------13--12--|
----------------------|
----------------------|
----------------------|
----------------------|


--12----10------------|-----------------|
--------------13--12--|--10-------------|
----------------------|-----------------|
----------------------|-----------------|
----------------------|-----------------|
----------------------|-----------------|


el rasgueo es a si A-V-A-AX-A-V


            Am
Sublime maldición
F                       C
de recordarte cien por ciento
     E7       Am
tus besos, tu aliento,
    F
tu boca un diente chueco
     C                 E7
ya lo sé, nunca me libraré
                    Am
de esta sublime maldición.


             Am
Sublime maldición
 F              C
de recordarte desnuda
   E7        Am
graciosa, huesuda
     F                   C
ay cuánto no daria por besar
               E7
tu escondido lunar
   F
y nada,
                C
nada tengo de derecho
    E7
tan solo
                 Am
esta sublime maldición.

            Am
Sublime maldición
F                C
al recordar tu mirada
    E7    Am
la rosa salada
      F
del llanto y el dolor
          C
que te causé
             E7
nunca me libraré
                   Am
de esa sublime maldición.

             Am
Sublime maldición
 F               C
al recordarte desnuda...


Sale banda pues esta va dedicada a mi Flaquita Hermosa N-A-D-I-A!!!
Suggest correction
Give kudos to tab author, rate the tab!
1 2 3 4 5
comments
print report bad tab
guest
You may want to rate the tab now too:
select rating
Wanna post a correction for this tab? Suggest correction