Oops, an error
Loading. Please wait.

Nunca Cambies Tab

19 views 1 this week
no commentswrite comment
1 2 3 4 5
3 more votes to show rating
add to favorites
launch autoscroll
font size
0
reset
how to read this tab
guitar tuner
×
Best way to learn
"Nunca Cambies"
Autoscroll
slow
fast
+/-
esc
set tempo
stop
Que hay banda aqui les dejo una cancioncita pa qe la ensayen
saludos a la banda del Cecy  Metepec I jaja


e|-3-5-5/7-7-7-7--7-7-7--7-7-7-5-3-2-|
B|----------------------------------3|
G|-----------------------------------|
D|-----------------------------------|
A|-----------------------------------|
E|-----------------------------------|


e|-2--3-3-3--3-3-3--3-3-3-2-0--------|
B|3---------------------------3-0----|
G|-----------------------------------|
D|-----------------------------------|
A|-----------------------------------|
E|-----------------------------------|


e|-0-0-2-2-2--2-2-2-0-2-3-3----------|
B|-----------------------------------|
G|-----------------------------------|
D|-----------------------------------|
A|-----------------------------------|
E|-----------------------------------|


e|-0-2-3-3-3--3-3-3--3-3-3-2-3/777777|
B|-----------------------------------|
G|-----------------------------------|
D|-----------------------------------|
A|-----------------------------------|
E|-----------------------------------|
Suggest correction
Give kudos to tab author, rate the tab!
1 2 3 4 5
comments
print report bad tab
guest
You may want to rate the tab now too:
select rating
Wanna post a correction for this tab? Suggest correction