Oops, an error
Loading. Please wait.

Corazón De Metal Tab

by Jotdog
268 views 1 this week
no commentswrite comment
1 2 3 4 5
3 more votes to show rating
add to favorites
launch autoscroll
font size
0
reset
how to read this tab
guitar tuner
×
Best way to learn
"Corazón De Metal"
Autoscroll
slow
fast
+/-
esc
set tempo
stop
Intro:

e:-------------------------------|--0--|
B:-------------------------------|--0--|
G:-------------------------------|--0--|
D:-------------------------------|--0--|
A:-0-5-7-8---7-8-7-8-7-5-3-0-3-5-|--5--|
E:-------------------------------|--0--|


e:-------------------------------|
B:-------------------------------|
G:-------------------------------|
D:--------------------------7-5--|
A:-0-5-7-8---7-8-7-8-7-5-3-0-----|
E:-------------------------------|

MIm
Soy un robot
                  SOL
Un fugitivo de la humanidad
MIm                              SOL
Antisocial que nunca sabe de que tema hablar
MIm                                 SOL
Y percepción entre lo que esta bien y lo que no
MIm                             SOL
Que confusión si alguien impide tu satisfacción

MIm                     DO                  SOL
Porque no entiendes que sin ti este amor es mortal
MIm                  DO             SOL
Porque tan solo eres capaz de darle reventar
MIm                             DO
Y es que este amor es lo que me rompió mi corazón
           SOL
Corazón de metal
MIm
Y ahora soy lo que quedo
       DO
Soy un robot


e:-------------------------------|--0--|
B:-------------------------------|--0--|
G:-------------------------------|--0--|
D:-------------------------------|--0--|
A:-0-5-7-8---7-8-7-8-7-5-3-0-3-5-|--5--|
E:-------------------------------|--0--|

soy un robot

e:-------------------------------|
B:-------------------------------|
G:-------------------------------|
D:--------------------------7-5--|
A:-0-5-7-8---7-8-7-8-7-5-3-0-----|
E:-------------------------------|

MIm
Porque no estas
                  SOL
no ves que así no puedo funcionar
MIm                         SOL
Regresa ya con ese juego de salud mental
MIm                            SOL
Preguntaras si esta en peligro tu seguridad
MIm                              SOL
Déjame entrar no desperdicies mi existencia ya


MIm                     DO                  SOL
Porque no entiendes que sin ti este amor es mortal
MIm                  DO             SOL
Porque tan solo eres capaz de darle reventar
MIm                             DO
Y es que este amor es lo que me rompió mi corazón
           SOL
Corazón de metal
MIm
Y ahora soy lo que quedo
       DO
Soy un robot


Dime en tu asiento
con tus tormentos
mis sentimientos
no existen mas
Soy un robot (x2)

Porque no entiendes que sin ti este amor es mortal
Porque tan solo eres capaz de darle reventar
Y es que este amor es el que me rompió mi corazón
Corazón de metal
Y ahora soy lo que quedo
Soy un robot(x3)

Soy un robot
Un fugitivo de la humanidad
Porque no estas no ves que así no me se comportar...


Cualquier duda,reclamo,peticion,etc, a mi email: eroz_deiman@
..saludos pa todos los civilachos de la UAJMS
u_U
Suggest correction
Give kudos to tab author, rate the tab!
1 2 3 4 5
comments
print report bad tab
guest
You may want to rate the tab now too:
select rating
Wanna post a correction for this tab? Suggest correction