Oops, an error
Loading. Please wait.

105 Y 3 Tab

14 views 3 this week
no commentswrite comment
1 2 3 4 5
3 more votes to show rating
add to favorites
launch autoscroll
font size
0
reset
how to read this tab
guitar tuner
×
Best way to learn
"105 Y 3"
Autoscroll
slow
fast
+/-
esc
set tempo
stop
                                                   
*****************************************
INTRO:                                              *Orden del tema:  
                     *
                                                    * 1° Riff                 *
(Riff)                                              * 2° se agrega el bajo    *
                                                    * 3° se agrega el Riff 2  *
e|-0--0--0-1--1--1h0-0--0--0-1--1--1h0--|           * 4° a tocar el tema      *
B|-1--1--1-1--1--1---1--1--1-1--1--1----|           ***************************
G|--------------------------------------|
D|--------------------------------------|
A|--------------------------------------|
E|--------------------------------------|

BAJO
G|---------------------------------|
D|-----5~--3~--2~--3-3-3-3-3-3-3---|
A|-3/5-----------------------------|
E|---------------------------------|

(Riff 2)
e|-3--3--3-2--2--2-0--0--0h1p0--1--1--1-|
B|-1--1--1-2--2--2-1--1--1------1--1--1-|
G|--------------------------------------|
D|--------------------------------------|
A|--------------------------------------|
E|--------------------------------------|

(Riff 3)
e|----------------------------|--|
B|----------------------------|--|
G|-------0--------------------|--|
D|-4-2-0---4-2-0--------------|x4|
A|---------------3-2---3-2----|--|
E|-------------------3-----3--|--|

(Riff)
Voy a salir cuando caiga el sol
(Riff)
Doy con suerte voy a verte allá
(Riff)
Si la noche se me hizo un vicio
(Riff)                         (Riff 2)
Yo no tengo la culpa mi amor


(Riff)
Voy a tomar todo lo que me den
(Riff)
Voy a matar esa amargura
(Riff)
Ella dijo no, pero yo dije si
(Riff)
No quiero quedarme sin tu imagen final


SOL                        (Riff 2)
Voy a esperarte en la 105 y 3
SOL                        (Riff 2)
Voy a esperarte en la 105 y 3

(Riff 3)

(Riff)
Masoquista de este dolor
(Riff)
Soy esclavo de Tu amor
(Riff)
Voy rendido a tus pies
(Riff)
Y vayas donde vayas
(Riff)
Yo te voy a seguir.

SOL                        (Riff 2)
Voy a esperarte en la 105 y 3
SOL                        (Riff 2)
Voy a esperarte en la 105 y 3

(Riff 3)

*****************************(FIN)***********************************


Bueno aca está, asi es el tema (creo) lo unico que faltaria
seria el riff de SOL y listo le mando saludos a los de siempre
LEO, EL PELA, ABEL y todo el EBA de San Miguel
si tienen alguna duda, quieren escribierme o sacaron el riff
mi mail es bruno000@

''''''''¡¡¡NO CREO QUE ENTIENDAS ESTE SENTIMIENTO!!!''''''

los saluda BRUNO y FRANCO(franky)
Suggest correction
Give kudos to tab author, rate the tab!
1 2 3 4 5
comments
print report bad tab
guest
You may want to rate the tab now too:
select rating
Wanna post a correction for this tab? Suggest correction