Oops, an error
Loading. Please wait.
29 views 1 this week
no commentswrite comment
1 2 3 4 5
3 more votes to show rating
add to favorites
launch autoscroll
font size
0
reset
how to read this tab
guitar tuner
×
Best way to learn
"Barrio"
Autoscroll
slow
fast
+/-
esc
set tempo
stop
Nota_

H   : hamer on
P   : pull off
... : pausa
/   : slide
******************************************************************************************
hay dos guitarras.. mientras una hace la base ... otra hace los punteos arriba
Los punteos no se hacen al principio...  sino que se tocan juntamente con la canción, 
es decir arriba de la letra... yo puse las dos maneras.. una es base y o
ra puteo..
Espero que les sirva..

cualquier duda o correccion.. hacerla a federnr_la25@
******************************************************************************************

intro
1)-3/5--5-5-|
2)-3/5--5-5-|
3)----------|
4)----------|
5)----------|
6)----------|
intro
Tanto rock no puede ser verdad
 A5            D5       A5
tanto rock no creo merecer
 A5         D5             A5
solo vos podes llenarme el alma
 A5         D5           A5
solo vos podes ponerme asi.

D C5 A5

Yo le di lo que ella no me daba
le escribi lo que me paso
yo con vos no puedo controlarme
yo con vos me pienso morir.

ESTRIBILLO:

1)---------------------|---------------------|--|-----------------------|
2)------7-7...---------|---------------------|--|-----------------------|
3)7-5-7-7-7...7h6h5----|------7-7...---------|X2|-----------------------|
4)-----------------7...|7-5-7-7-7...7h6h5----|--|9-9---11-11---7-7------|
5)---------------------|-----------------7...|--|7-7----9--9---5-5--7-7-|
6)---------------------|---------------------|--|-------------------5-5-|
          D5
Porque el barrio me hizo asi
         A5
y nadie lo puede cambiar
          D5
Porque el barrio me hizo asi
         A5
y nadie lo puede cambiar
E5             F#          D5        A5
Nuestro amor duro lo que tenia que durar.


Somos los que nadie quiere ver
somos de los barrios marginales
vos sos la vos de mi generacion
y ella fue el todo para mi.

D C5 A5

1)------------------------------------------|---|
2)------------------------------------------|---| acompañando el verso
3)-7/9-9-9---7-7-7-7---7-6------7-7-6-------|---Í que viene abajo
4)------------------------7...--------7...--|-x4|
5)------------------------------------------|---|
6)------------------------------------------|---|

Ya lo se no quise lastimarla
y se fue pensando que soy cruel
no se entero que yo fui a buscarla
y se fue, se fue corriendome.

ESTRIBILLO ( este punteo no se hace al principio.. sino que acompaña la
             LA canción )
1)---------------------|---------------------|--|-----------------------|
2)------7-7...---------|---------------------|--|-----------------------|
3)7-5-7-7-7...7h6h5----|------7-7...---------|X2|-----------------------|
4)-----------------7...|7-5-7-7-7...7h6h5----|--|9-9---11-11---7-7------|
5)---------------------|-----------------7...|--|7-7----9--9---5-5--7-7-|
6)---------------------|---------------------|--|-------------------5-5-|
          D5
Porque el barrio me hizo asi
         A5
y nadie lo puede cambiar
          D5
Porque el barrio me hizo asi
         A5
y nadie lo puede cambiar
E5             F#           D5        A5
Nuestro amor duro lo que tenia que durar.


SOLO DE ARMONICA: D5 - A5 - D5 - E5 - D5 - A5 - E5 (x 7 11 x x x) D5 A5


Se que ya no viene al recital           |
y en su agenda tacho mi nombre ayer     | acompañar con la misma que la
¿Que sera del rock sin el and roll?     |  intro
¿Que sera de mi si estoy sin vos?.      |

***********************************************************************************

el 19 todos a obras... aguante  JP...
Suggest correction
Give kudos to tab author, rate the tab!
1 2 3 4 5
comments
print report bad tab
guest
You may want to rate the tab now too:
select rating
Wanna post a correction for this tab? Suggest correction