Oops, an error
Loading. Please wait.

Buenas Noches Tab

11 views 1 this week
no commentswrite comment
1 2 3 4 5
3 more votes to show rating
add to favorites
launch autoscroll
font size
0
reset
how to read this tab
guitar tuner
×
Best way to learn
"Buenas Noches"
Autoscroll
slow
fast
+/-
esc
set tempo
stop
e|---------------------------12b-12v----12b-12b-12v------------
B|-s10v-10v-s10v-10v-10v--10---------10------------------------
G|----------s9-------------------------------------------------
D|-------------------------------------------------------------
A|-------------------------------------------------------------
E|-------------------------------------------------------------

e|-----------------------------------------------8--5-5--8--5--
B|-s10v-10v--s10v-10v-10v------------------------7b-5-5--7b-5--
G|-----------s9------------12-11-9v--12-11-9v------------------
D|-------------------------------------------------------------
A|-------------------------------------------------------------
E|-------------------------------------------------------------

e|-8--5-5--8--5--8--5------------------------------------------
B|-7b-5-5--7b-5--7b-5------------------------------------------
G|-------------------------------------------------------------
D|---------------------------------------------------4v-2v-----
A|----------------------2b-2b-2b-2b-2b-2b-2b-2b-p0-------------
E|-------------------------------------------------------------

e|-------------------------------------------------------------
B|-------------------------3-2h3-p2----------------------------
G|----------------------------------4-2-1-----2p1--------------
D|----2-s6-7-5v---------------------------2-------2------------
A|-s4------------7p5--------------------------------5v---------
E|-------------------5v----------------------------------------

e|-------------------------------------------------------------
B|-------------------------------------------------------------
G|----7-----9p7--6-4-------------------------------------------
D|-7-----7-----------7v----------------------------------------
A|-------------------------------------------------------------
E|-------------------------------------------------------------
Suggest correction
Give kudos to tab author, rate the tab!
1 2 3 4 5
comments
print report bad tab
guest
You may want to rate the tab now too:
select rating
Wanna post a correction for this tab? Suggest correction