Oops, an error
Loading. Please wait.

Chicos De Barrio Bass

19 views 1 this week
no commentswrite comment
1 2 3 4 5
3 more votes to show rating
add to favorites
launch autoscroll
font size
0
reset
guitar tuner
×
Best way to learn
"Chicos De Barrio"
Autoscroll
slow
fast
+/-
esc
set tempo
stop
INTRO
G-I-----I------I-----I-------I--------------
D-I-----I------I-----I-------I--------------
A-I-----I--5*--I-----I--15*--I--------------
E-I-----I------I-----I-------I--------------

*dejar sonando

G--------------------------------------------
D-----------2-2--0---2-----------------------
A--5-x-5-----------3-------------------------
E--------------------------------------------


VERSOS
Oi que vos estabas mejor...

G---------7--5----------------------------------
D---------------7-------------------------------
A---5-5-------------3----3--2--1----------------
E---------------------------------1--2--3-------

y que cambiaste la manera de andar

G---------------------7--5-------5-----------
D----------------------------7---------------
A--------------5---5-------------------------
E---3-3-3------------------------------------


ESTRIBILLO
Los chicos de barrio quieren tomar
G--------------------------------------------
D----------------------------4-4--5-5--7-4---
A-----------------------5-5------------------
E--1(x8)----3-(x8)---------------------------


despues del segundo estribillo viene asi:
Nota: Toda esta parte la pongo en acordes porque el bajo impovisa en el momento.
mpovisen con triadas y
octavas que queda bien. Dibujen con la escala mayor.

INTRO

 (D - C ) X 4
 (D - C - G - A) X 2

G----------I------I---------------------------
D----------I------I---------------------------
A--5-x-5---I------I---5-x--5------------------
E----------I------I---------------------------


 C-C#-D-D#

 D#           A#
 ya no te ven por este lugar
 C#            G#
 por el pasaje te van a extrañar
 D#	     C#
 la pizzeria ya se cerro
 G#          D#
 en ese baño no te voy a encontrar

 F#             G#                D#
 Los chicos del barrio quieren tomar
 F#             G#                D#
 Los chicos del barrio quieren tomar
 F#       G#                 D#
 Los chicos... quieren tomar...

VELEZ LOCURA
COHIBIDOS R N R
Suggest correction
Give kudos to tab author, rate the tab!
1 2 3 4 5
comments
print report bad tab
guest
You may want to rate the tab now too:
select rating
Wanna post a correction for this tab? Suggest correction