Oops, an error
Loading. Please wait.

Chicos De Barrio Tab

14 views 1 this week
no commentswrite comment
1 2 3 4 5
3 more votes to show rating
add to favorites
launch autoscroll
font size
0
reset
how to read this tab
guitar tuner
Autoscroll
slow
fast
+/-
esc
set tempo
stop
Help us to improve Ultimate-Guitar.com Take our survey!
×
Riff

  D5     D5   Dsus4 D5 C5 D5
e|-----------------------------
B|---------------8-------------
G|-7-x---7--x----7--7--5--7----
D|-7-x---7--x----7--7--5--7----
A|-5-x---5--x----5--5--3--5----
E|-----------------------------

Intro

e|----------------------
B|-----10------13bavv---
G|-----10bvv------------
D|-12-------------------
A|----------------------
E|----------------------

D5            C5
Oi que vos estabas mejor,

G5                   D5
y que cambiaste la manera de hablar,

D5             C5
oí tambien que ya no bailas,

G5                  D5
y que cambiaste la forma de vestir


Riff

D5               C5
Ya no te ven por este lugar,

G5                D5
por el pasaje te van a extrañar,

D5          C5
la pizzeria ya se cerró,

G5                D5
en ese baño no te voy a encontrar,


F5               G5             D5
Los chicos del barrio quieren tomar,

F5               G5             D5
los chicos del barrio quieren tomar,

F5        G5               Riff
los chicos, quieren tomar


Solo
e|-------------------------------------------------------------
B|-13---13----13---13-----------13-----13--13----13--13--------
G|-12b--12ba--12b--12-10-12-10--12-X3--12b-12ba--12b-12-10-12--
D|-------------------------------------------------------------
A|-------------------------------------------------------------
E|-------------------------------------------------------------

e|---------------------------------------------------------------------
B|-------------------------------11-10---------------------------------
G|----------12-10b------------9---------12-12s14v------------12-10b----
D|----10-12--------12------11--------------------------10-12--------s12
A|s12------------------s12-------------------------s12-----------------
E|---------------------------------------------------------------------

e|-------------------------------------------------------------------------
B|-----------------------------------------------------------11-10---------
G|10-9----10-9----10-9----10------------12--10b------------9-------12-12s14
D|-----12------12------12---------10-12---------12------11-----------------
A|----------------------------s12-------------------s12--------------------
E|-------------------------------------------------------------------------

e|---------------------------13-------10-----------------------------------
B|-----------------------13b----13b------13p10--------------------------10-
G|-----------12-10b----------------------------12p10-12ba-p10-----12---10b-
D|-----10-12--------12----------------------------------------12----12-----
A|-s12---------------------------------------------------------------------
E|-------------------------------------------------------------------------

e|-----10--13ba-
B|-s10----------
G|--------------
D|--------------
A|--------------
E|--------------

D5-D5

C5-C#5-D5-D#5                Bb5
           Ya no te ven por este lugar,

C#5              G#5
por el pasaje te van a extrañar,

D#5         C#5
la pizzeria ya se cerró,

G#5                D#5
en ese baño no te voy a encontrar


F#5               G#5             D#5
Los chicos del barrio quieren tomar,

F#5               G#5             D#5
los chicos del barrio quieren tomar,

F#5        G#5
los chicos, quieren tomar
Suggest correction
Give kudos to tab author, rate the tab!
1 2 3 4 5
comments
print report bad tab
guest
You may want to rate the tab now too:
select rating
Wanna post a correction for this tab? Suggest correction