Oops, an error
Loading. Please wait.

Cuando Me Muera Chords

version 1
version 1

Whole song

35 views 1 this week
no commentswrite comment
1 2 3 4 5
3 more votes to show rating
add to favorites
launch autoscroll
font size
0
reset
transpose
0
reset
display chords
guitar tuner
Autoscroll
slow
fast
+/-
esc
set tempo
stop
Strumming
There is no strumming pattern for this song yet. and get +5 IQ
Intro: C G

          G               D
Cuando me muera no quiero flores,
           C             G
quiero que fumen en mi honor,
             G                D
quiero que aspiren y tomen cerveza,
          C               G
y que se canten esta canción.

             G               D
No quiero ex-novias ni familiares,
        C                  G
solo quiero a mi ultimo amor,

quiero que todos     cierren los ojos,
        e|-----3---------3--------0------
        B|-------0---------0--------0----
        G|---------0---------0--------0--
        D|--2---------1---------0--------
        A|-------------------------------
        E|-------------------------------

    cuando se acerquen a mi     cajón.
E|-----0------------0-----0---2----3----
B|-------0------------1-----1---3--3----
G|---------0------------0----------0----
D|---------------------------------0----
A|--4-----------2/3----------------2----
E|---------------------------------3----

           G               D
Voy a extrañarte cuando me muera,
          C                  G
voy a cuidarte en tu habitación,
             G                D
quiero que aspiren y tomen cerveza,
           C                    G
y que me entierren en lugano 1 y 2.

G D C G x2
Laralalara...

Cuando me muera no quiero flores,
quiero que fumen en mi honor,
quiero que aspiren y tomen cerveza,
y que me entierren en lugano 1 y 2.

Laralalara...

         G               D
Voy a tocarte cuando me muera,
          C                 G
voy a esperarte en la oscuridad,
          Em              Am
voy a abrazarte, voy a seguirte,
             C                      G
aunque sea triste y no te pueda sentir.

Cuando me muera no quiero a nadie,
que alguna vez me halla tratado mal,
no quiero curas, ni policías,
que estén velando por la tranquilidad.

Laralalara...

Termina en con
un G flashero que es:
e|-7-
B|-8-
G|-7-
D|-9-
A|-10-
E|---

--------------------------------------------------------
Espero que les sirva

Aguante el Rock And Roll

Punta Alta
                                  _________Aníbal#87
Suggest correction
Give kudos to tab author, rate the tab!
1 2 3 4 5
comments
print report bad tab
guest
Wanna post a correction for this tab? Suggest correction