Oops, an error
Loading. Please wait.

Cuando Me Muera Tab

16 views 1 this week
no commentswrite comment
1 2 3 4 5
3 more votes to show rating
add to favorites
launch autoscroll
font size
0
reset
how to read this tab
guitar tuner
Autoscroll
slow
fast
+/-
esc
set tempo
stop
Help us to improve Ultimate-Guitar.com Take our survey!
×
 1:20
e:------------------------------------------------------|
B:--------10----12e-10v-12e-10v----------9----12e----10-|
G:-9-9-11----11-------------------9-9-11---11-----11----|
D:------------------------------------------------------|
A:------------------------------------------------------|
E:------------------------------------------------------|

 1:29
 |--------------------------------13e12-13e12-|
 |-------10-10-------10----12-10v-------------|
 |--9-11--------9-11----11--------------------|
 |--------------------------------------------|
 |--------------------------------------------|
 |--------------------------------------------|

 1:37 (ojo aca que al principio es mas despacio)
 |--------------------------------------------------------|
 |-----10---10--------10---10------10-12e-10----10-12e-10-|
 |--11-----------9h11---------9-11-----------11-----------|
 |--------------------------------------------------------|
 |--------------------------------------------------------|
 |--------------------------------------------------------|

 1:43                                         Final:1:55
 |--------------------------------------------|-------------------------||
 |-------10-12e-10--------12-10v---------10v--|---10h12-10----10vvv-----||
 |--9-11-------------9h11---------9-9-11------|------------11-----------||
 |--------------------------------------------|-------------------------||
 |--------------------------------------------|-------------------------||
 |--------------------------------------------|-------------------------||

v: vibracion
e: estirar
h: ligado

Metan en algunos lugares ligados entre dos notas, la hace que suene un poco mejor.
Espero que les sirva...me parece que esta muy cercana a la realidad...
Hernan el cd de jovenes te lo saque yo...no se si sabias...Saludos a  \()/
Suggest correction
Give kudos to tab author, rate the tab!
1 2 3 4 5
comments
print report bad tab
guest
You may want to rate the tab now too:
select rating
Wanna post a correction for this tab? Suggest correction