Oops, an error
Loading. Please wait.

Dale Que Va Tab

11 views 1 this week
no commentswrite comment
1 2 3 4 5
3 more votes to show rating
add to favorites
launch autoscroll
font size
0
reset
how to read this tab
guitar tuner
Autoscroll
slow
fast
+/-
esc
set tempo
stop
Help us to improve Ultimate-Guitar.com Take our survey!
×
DALE QUE VA- JOVENES PORDIOSEROS

  Solo
e|-12---12---12----12------------------------------------------
B|-12b--12b--12b---12b-p10----12-10----------------------------
G|-------------------------11-------------5-7--7b-5--7-5-------
D|------------------------------------5h7----------------7-s7--
A|-------------------------------------------------------------
E|-------------------------------------------------------------


e|-12---12---12----12--------------------------------------------------
B|-12b--12b--12b---12b-p10----12-10--------------------------7-10-7-7b-
G|-------------------------11-------------5-7--7b-5--7-5---8-----------
D|------------------------------------5h7------------------------------
A|---------------------------------------------------------------------
E|---------------------------------------------------------------------
Suggest correction
Give kudos to tab author, rate the tab!
1 2 3 4 5
comments
print report bad tab
guest
You may want to rate the tab now too:
select rating
Wanna post a correction for this tab? Suggest correction