Oops, an error
Loading. Please wait.

Funeral Tab

22 views 1 this week
no commentswrite comment
1 2 3 4 5
3 more votes to show rating
add to favorites
launch autoscroll
font size
0
reset
how to read this tab
guitar tuner
×
Best way to learn
"Funeral"
Autoscroll
slow
fast
+/-
esc
set tempo
stop
  Riff 1

e|----------------------------
B|----------------------------
G|---------8------------8-10--
D|---------8------------8-10--
A|-10--12--6----10--12--6-8---
E|-8---8--------8---8---------


  Solo
e|-s8--8---8---8-8--------------s8--8--8---8-8----------8v-
B|-s8--10--11--8-8--8-----------s8--10-11--8-8--8----------
G|------------------8b--------------------------8b---------  X2
D|---------------------10-10v----------------------10------
A|---------------------------------------------------------
E|---------------------------------------------------------

e|---------------------------------13-14-15---------------------------
B|-15b-15b--15-13h15p13-----13-15b----------15b-15-13---15-13h15p13---
G|----------------------14------------------------------------------14
D|--------------------------------------------------------------------
A|--------------------------------------------------------------------
E|--------------------------------------------------------------------

e|--------------------------------------15-18b-18b--17h18--17b-17b
B|-13-15b--13-15---13-13----13-------15---------------------------
G|-----------------------14-------17------------------------------
D|----------------------------------------------------------------
A|----------------------------------------------------------------
E|----------------------------------------------------------------

e|------------------------------------19-----20vv--
B|-17h19--20p19p17------19-17-----19b----19b-------
G|-----------------17---------17-------------------
D|-------------------------------------------------
A|-------------------------------------------------
E|-------------------------------------------------
Suggest correction
Give kudos to tab author, rate the tab!
1 2 3 4 5
comments
print report bad tab
guest
You may want to rate the tab now too:
select rating
Wanna post a correction for this tab? Suggest correction