Oops, an error
Loading. Please wait.

Hija De Puta Chords

10 views 1 this week
no commentswrite comment
1 2 3 4 5
3 more votes to show rating
add to favorites
×
Save as Personal and add changes to this tab that will be seen only by you. Learn more ›
×
You can save this tab as Personal to edit and correct it or add notes. All changes will be seen only by you. Learn more »
save as personal
new!
launch autoscroll
font size
0
reset
transpose
0
reset
simplify chords
display chords
guitar tuner
Autoscroll
slow
fast
+/-
esc
set tempo
stop
Strumming
There is no strumming pattern for this song yet. and get +5 IQ
Riff X4:

e--------------------------------------------
b--------------------------------------------
g--4---7---9---11---9---7---4---7---9--------
d--------------------------------------------
a--2---5---7---9----7---5---2---5---7--------
E--------------------------------------------


B5
Tengo tus uñas clavadas en la piel,
B5
Tengo tus piernas tatuadas en la mente,
B5
Te llevaría derecho al altar
B5
Pero primero la tenés que probar.

A5                B5
Y tus besos se escapan con el viento
A5               B5
¿Quién podrá calmar tanto calor?
A5                B5
y tus besos se escapan con el viento
A5                B5
¿Quién podrá...?

B5
Me traicionaste hija de puta
          A5         E5
Por darte todo me siento tan mal
B5
Me traicionaste hija de puta
          A5         E5
Por darte todo me siento tan mal

Riff X2


B5
Quiero sangrar como el tabique aquel
B5
Voy a vivir... con vos siendo mi orgullo
B5
Te rogaría q­­ue seas mi mujer
B5
Me gusta mucho como... me la comés

A5               B5
Y tus besos se escapan con el viento
A5              B5
¿Quién podrá sentir tanto dolor?
A5                B5
y tus besos se escapan con el viento
A5              B5
¿Quién podrá?


B5
Me traicionaste hija de puta
          A5         E5
Por darte todo me siento tan mal
B5
Me traicionaste hija de puta
          A5         E5
Por darte todo me siento tan mal

Solo

B5
Me traicionaste hija de puta
          A5         E5
Por darte todo me siento tan mal
B5
Me traicionaste hija de puta
          A5         E5
Por darte todo me siento tan mal


Riff X4

e--------------------------------------------
b--------------------------------------------
g--4---7---9---11---9---7---4---7---9--------
d--------------------------------------------
a--2---5---7---9----7---5---2---5---7--------
E--------------------------------------------


Cierra con:


e--------------------------------------------
b--------------------------------------------
g--------------------------------------------
d----9---7---9-------------------------------
a--------------------------------------------
E----7---5---7-------------------------------


Tema facil una vez que se aprenden las octavas...
saludos y aguante "De la nada rock"
Suggest correction
Give kudos to tab author, rate the tab!
1 2 3 4 5
comments
print report bad tab
guest
Wanna post a correction for this tab? Suggest correction