Oops, an error
Loading. Please wait.

Hombre Rocanrol Tab

version 1
version 1

Whole song

17 views 1 this week
no commentswrite comment
1 2 3 4 5
3 more votes to show rating
add to favorites
launch autoscroll
font size
0
reset
how to read this tab
guitar tuner
Autoscroll
slow
fast
+/-
esc
set tempo
stop
Riffs
   1                                          2
e|------------------------------------------|------------------------------
B|------------------------------------------|------------------------------
G|------------------------------------------|------------------------------
D|---2p0----------------------------2p0-----|------------------------------
A|-------2-0--0-0-0---2p0---------------2-0-|-------10-0-0-9--0-4-0-5-5-6-6
E|0-----------------------3b-p0-0-----------|0--0-0------------------------
              |-----|
             Palm Mute


Riff 2  en segunda estrofa, en el estribillo despues de que dice
"soy el hombre rocanrol" y durante el solo de saxo


  Solo
e|-s8-8-8-8-11ba-----------------------------------------------
B|----------------10//-11--10-11--10-11--10ba-p8---------------
G|-----------------------------------------------10-8h9--------
D|------------------------------------------------------10-----
A|-------------------------------------------------------------
E|-------------------------------------------------------------

e|------------------------------------------------------
B|------------------------------------------------------
G|--------------------------------------------8-10-8----
D|-8-------------------------------------8-10--------10-
A|---10-9-8--6h7-6h7---7------------8-10---------------- Esto Con
E|-----------------------8-8--s8-11---------------------   |
                                                           |
e|------------------------------------------------------   |
B|-11-10------------------------------------------------ Palm Mute
G|--------12-11--10-12-11--10-12-11--10-12-11--10-12-11-   /
D|------------------------------------------------------  /
A|------------------------------------------------------ /
E|------------------------------------------------------

e|------------15----14----13-----13----------------------------
B|-----13-13-----13----13----16-----16s18v--13-18p13v----------
G|-s14---------------------------------------------------------
D|-------------------------------------------------------------
A|-------------------------------------------------------------
E|-------------------------------------------------------------

e|-----15----14----13-----11----10----9---8---7---6---5s0------
B|-s13----13----13-----12----11----10---9---8---7---6----------
G|-------------------------------------------------------------
D|-------------------------------------------------------------
A|-------------------------------------------------------------
E|-------------------------------------------------------------
Suggest correction
Give kudos to tab author, rate the tab!
1 2 3 4 5
comments
print report bad tab
guest
You may want to rate the tab now too:
select rating
Wanna post a correction for this tab? Suggest correction