Oops, an error
Loading. Please wait.

Hombre Rocanrol Tab

version 2
version 2

Whole song

23 views 1 this week
no commentswrite comment
1 2 3 4 5
3 more votes to show rating
add to favorites
launch autoscroll
font size
0
reset
how to read this tab
guitar tuner
Autoscroll
slow
fast
+/-
esc
set tempo
stop
Help us to improve Ultimate-Guitar.com Take our survey!
×
INTRO:
(2):DAJAR SONAR
>>>>>>:ES UN ARRASTRE DEL 12 AL  EL TEMA ESCUCHEN BIEN EL RITMO.
Y LO SACAN AL TOQUE.1..2...3..VA...

e--------------------------------------------------]
B--------------------------------------------------]
G--------------------------------------------------]
D------------2-0-------------------------2-0-------]
A-----------------20---0-0-0-2-0---------------2-0-]
E-12>>0---0-----------------------3-0-0------------]

e-------------------------------------------------------]
B-------------------------------------------------------]
G-------------------------------------------------------]
D-----------2-0-----------------------------2-0---------]
A---(2)------------2-0---0-0-0-2-0-0------------2-0-----]
E--------0----------------------------3-0-0-------------]


E5
Vendi a mi hermano por culpa de la noche
E5
Vendi a mi hijo y a mi mujer tambien
E5
No tengo amigos bah los cuento con los dedos
E5
Y no me importa tu gran reputacion no

A5            B5
No es extraño soy el hombre rocanrol
A5            B5
No es extraño soy el hombre rocanrol
A5            B5
No es extraño, no es extrañO

soy el hombre rocanrol


E5
Vendi a mi hermano por culpa de la noche
E5
Vendi a mi hijo y a mi mujer tambien
E5
No tengo amigos bah los cuento con los dedos
E5
Y no me importa tu gran reputacion no

A5            B5
No es extraño soy el hombre rocanrol
A5            B5
No es extraño soy el hombre rocanrol
A5            B5
No es extraño, no es extraño
A5
soy el hombre rocanrol

SOLO
e--15B-15B-12-15-12----------------------------]
B------------------15-12-----------------------]
G----------------------14-12-------------------]
D----------------------------14-12-------------]
A----------------------------------14-12-------]
E----------------------------------------15-15-]

e---------------------------------------]
B---------------------------------------]
G---------------------------------------]
D--14-12-------------12---12---12---12--]
A-------14-12--------12---12---12---12--]
E------------15-12-15---15---15---15----]


e---------------------------------------]
B---------------------------------------]
G---------------------------------------]
D-----9---9---9---9---------------------]
A--12---12--12--12----------------------]
E---------------------------------------]

e-----------------9b-7-7-5----------------]
B------------8-10---------5-8-------------]
G-------12-9-----------------4-7----------]
D--12-9-------------------------5-7-------]
A----------------------------------5-7----]
E--------------------------------------5-7]

BUENO ACA DEJO ESTE TEMA CUALQUIER DUDA JUAN_LA2572@
PARA LA GENTE DE LA PLATA,LOS DE LA SONA DE ROMERO.F:JUAN
Suggest correction
Give kudos to tab author, rate the tab!
1 2 3 4 5
comments
print report bad tab
guest
You may want to rate the tab now too:
select rating
Wanna post a correction for this tab? Suggest correction