Oops, an error
Loading. Please wait.

Maldito San Telmo Tab

22 views 1 this week
no commentswrite comment
1 2 3 4 5
3 more votes to show rating
add to favorites
launch autoscroll
font size
0
reset
how to read this tab
guitar tuner
×
Best way to learn
"Maldito San Telmo"
Autoscroll
slow
fast
+/-
esc
set tempo
stop
Aca mando la corrección de la tab anterior porque 
estaban mal los acordes... y par de arreglo en el punteo

*******************************************************************************************

Notas:

()  : es estirar la cuerda hasta que lo indique el numero q esat dentro del parentesis
... :hacer una pausa
/   :arrastrar la cuerda (seria hacer slide)
s   : slide
p   : pull off (especie de ligado pero de forma descendente, del puente hacia el clavijero)

ACORDES

  Bb5 D#5  F5
1)---|---|----|
2)---|---|----|
3)---|-8-|----|
4)-8-|-8-|-10-|
5)-8-|-6-|-8--|
6)-6-|---|----|
******************************************************************************************

Intro: Bb5   D#5

1)--------------------|-----------------------------|--------------------
2)--------------------|-----------------------------|--------------------
3)----3-5(7)...5-3---3|------3-3...6(8)(8)(8)(8)-6-3|----3-5(7)...5-3---3
4)-3/5-------------5--|-3/5-------------------------|-3/5-------------5--
5)--------------------|-----------------------------|--------------------
6)--------------------|-----------------------------|--------------------

1)-------------|--------|-----------------|----------|-----------------|
2)-------------|--------|-----------------|----------|-----------------|
3)-----3-3...--|--------|-7-7-7-7-7--3....|----------|-7-7-7-7-5--3....|
4)-3/5---------|-------8|-----------------|--------8-|-----------------|
5)-------------|8...-8-6|-----------------|8...-8--6-|-----------------|
6)-------------|6...-6--|-----------------|6...-6----|-----------------|

Bb5
Sali a buscar por todo el barrio en la calle,
no habia nadie con quien pudiera quemar,
F5                       D#5
Se hacen la fiesta conmigo,
F5                     D#5
dicen que son mis amigos,
               Bb5
antes de cruzar,
antes de cruzar,


Bb5
No tengo casa no tengo nada,
y no me importa si estas parada,
       D#5            Bb5
si veo algo no quiero verlo,
F5                D#5
Estuve solo mi amor,
                        Bb5 (5)
En el Maldito San Telmo,


Tus besos de fuego yo voy a extrañar,
tu boca bien grande de tanto gritar,
un trago de alcohol no va a hacerme muy mal,
SI sigo MI SOL no volvere jamas,
Estuve solo mi amor,
En el Maldito San Telmo,

1)------6------6------6------6------6------6------6------6------6------6------6------6
2)------6------6------6------6------6------6------6------6------6------6------6------6
3)-8(10)--8(10)--8(10)--8(10)--8(10)--8(10)--8(10)--8(10)--8(10)--8(10)--8(10)--x8(10)-
4)-----------------------------------------------------------------------
5)-----------------------------------------------------------------------
6)----------------------------------------------------------------------

1)-6-6-6-6-6-6-6-6|-9p8p6--9p8p6--9p8p6--9p8p6--9p8p6--9p8p6--9p8p6--9p8p6-|
2)----------------|--------------------------------------------------------|
3)----------------|--------------------------------------------------------|
4)----------------|--------------------------------------------------------|
5)----------------|--------------------------------------------------------|
6)----------------|--------------------------------------------------------|

1-6(8)----------|------------------------------|
2-----8-6-------|------------------------------|
3---------8-6...|--6-6-------------6-----------|
4---------------|8-----8...-----6-8-8--6/8...--|
5---------------|------------6-8---------------|
6---------------|------------------------------|

1)-------11--------11-------11--------11-------11-------11-------11-------11
2)-13(15)--13(15)-----13(15)---13(15)----13(15)--13(15)----13(15)---13(15)--
3)--------------------------------------------------------------------------
4)---------------------------------------------------------------------------
5)---------------------------------------------------------------------------
6)---------------------------------------------------------------------------

1)---------11-------11------11------11-|-6-6-8-6---6-------------------------------
2)--13(15)---13(15)---13(15)--13(15)---|-6-6-8-6-8-6------8-6---6-8----------------
3)-------------------------------------|---------8--------8-6-8-6-8----7s8-6--6-8--
4)-------------------------------------|----------------------8--------------8-----
5)-------------------------------------|-------------------------------------------
6)-------------------------------------|-------------------------------------------

1)-------------------------------------6-6-6-6--8-6---6-|
2)-------------------------------------6-6-6-6--8-6-8-6-|
3)- 7s8-6--6-8-----7s8---7s8---7s8------------------8---|
4)--------8---------------------------------------------|
5)------------------------------------------------------|
6)------------------------------------------------------|


Decile a los chicos que brinden por mi,
Pensar que en las fiestas se acuerdan de ti,
se toman la menta y se sienten mejor,
hacen la mezcla y se pasan peor,
Estuve solo mi amor,
En el Maldito San Telmo,
No tengo casa no tengo nada,
y no me importa si estas parada,
si veo algo no quiero verlo,
Estuve solo mi amor,
En el Maldito San Telmo,

En el Maldito San Telmo.

  Bb5      D#5       Bb5          D#5  Bb5

1)-------------------------------|--------|
2)-------------------------------|--------|
3)-------------------------------|--------|
4)-------------------------------|8-------|
5)-8------6...--6------------8...|6----8--|
6)-6--6-8---------8-6...-6-8-----|-----6--|
Suggest correction
Give kudos to tab author, rate the tab!
1 2 3 4 5
comments
print report bad tab
guest
You may want to rate the tab now too:
select rating
Wanna post a correction for this tab? Suggest correction