Oops, an error
Loading. Please wait.

Nunca Me Enseñaste Tab

version 1
version 1

Whole song

22 views 1 this week
no commentswrite comment
1 2 3 4 5
3 more votes to show rating
add to favorites
launch autoscroll
font size
0
reset
how to read this tab
guitar tuner
×
Best way to learn
"Nunca Me Enseñaste"
Autoscroll
slow
fast
+/-
esc
set tempo
stop
Esta es la parte del solo, la letra no la escribo porque está
bastante bien como lo sacaron...


    Em         F#m             A                          Bm
e|--3-3-3--------------------------------------------------------
B|--------5----3/2-----------------------------------------------
G|----------4------2---------------------------------------------
D|-------------------4-------------------------0/2-0-------------
A|---------------------4/5-4-2-4-2-0-0/2-0---0-------4-2-0-2/4-2-
E|-----------------------------------------4---------------------

        Em     G          A
e|--2-2-2---0--5/7-5---5--9-9-9-7-7-7-5--|-
B|--------3----------7-------------------|-
G|---------------------------------------|-
D|---------------------------------------|-
A|---------------------------------------|-
E|---------------------------------------|-

Esta es la parte del final... espero que les sirva.!!!

e|------------------------------------------------|-
B|------------------------------------------------|-
G|---0---------0----------------------------------|-
D|--5-5-4-4-4-2-2--0-0-0-----------------0/2---0--|-
A|-----------------------3-3-3-2-2-2-3-2-----3----|-
E|------------------------------------------------|-

e|-----------------------------------------3--|-
B|-----------------------------------------3--|-
G|---0---------0---------------------------4--|-
D|--5-5-4-4-4-2-2-0-0-0--------------------5--|-
A|----------------------3-3-3-2-2--3-2-5---5--|-
E|---------------------------------------2-3--|-

------------------------------------------------------------------
Aguante el Rocanrol!!!!

Bahia Blanca

                                          ___________Anibal#87 RnR
Suggest correction
Give kudos to tab author, rate the tab!
1 2 3 4 5
comments
print report bad tab
guest
You may want to rate the tab now too:
select rating
Wanna post a correction for this tab? Suggest correction