Oops, an error
Loading. Please wait.

Nunca Me Enseñaste Chords

version 2
version 2

Whole song

47 views 1 this week
no commentswrite comment
1 2 3 4 5
3 more votes to show rating
add to favorites
×
Save as Personal and add changes to this tab that will be seen only by you. Learn more ›
×
You can save this tab as Personal to edit and correct it or add notes. All changes will be seen only by you. Learn more »
save as personal
new!
launch autoscroll
font size
0
reset
transpose
0
reset
simplify chords
display chords
guitar tuner
Autoscroll
slow
fast
+/-
esc
set tempo
stop
Strumming
There is no strumming pattern for this song yet. and get +5 IQ
G                 D/F#
Si nos volvemos a ver
 Em7              C
Ni se te ocurra acércate
                   G
Ni abrazarme, ni mirarme
          D/F#
Podrías hacerme mal

G            D/F#
Te pido por favor
        Em7        C
Que me dejes si me ves
                   G
Que te vayas como algo
           D/F#
Que nunca pudo ser

Am                Bm
Mi corazón fue tu corazón
Am          Bm
Mi cabeza te olvido
Am            G           D/F#
Mi corazón no se si esta seguro.
C             D
No me puedo dormir
        G      D    C
Desde que no estas acá
             D         G    D/F#
Nunca me enseñaste a estar solo.

G        D/F#
Para mi fuiste el diablo
    Em7             C
No pienso darte el alma
                G
El tiempo que termina
     D/F#
Me puede curar

G          D/F#
Tengo que dejar
       Em7          C
De escribir sobre nosotros
                      G
Canciones que cantan todos
          D/F#
Y nunca vas a escuchar


Am                Bm
Mi corazón fue tu corazón
Am          Bm
Mi cabeza te olvido
Am            G           D/F#
Mi corazón no se si esta seguro.
C             D
No me puedo dormir
        G      D    C
Desde que no estas acá
             D         G    D/F#
Nunca me enseñaste a estar solo.


Punteo 1

E  |--333-------------------------------||
B  |------5-----3-----------------------||
G  |--------4-----4---------------------||
D  |----------------5-4-----------------||
A  |-----------------------4h5-4---4----||
E  |-----------------------------7------||

E  |-----------------------------------||
B  |-----------------------------------||
G  |-----------------------------------||
D  |-----------------4-2-0-------------||
A  |--------0----2-4-------4-2-2h4-2---||
E  |--0-2-3---3------------------------||

E  |-------------777-5---5-777-5---5-999-77-7h5-5-||
B  |--777-5---5--------8---------8----------------||
G  |--------7-------------------------------------||
D  |----------------------------------------------||
A  |----------------------------------------------||
E  |----------------------------------------------||

Am                Bm
Mi corazón fue tu corazón
Am          Bm   Bbm
Mi cabeza te olvido
Am            G           D/F#
Mi corazón no se si esta seguro.
C             D
No me puedo dormir
        G      D    C
Desde que no estas acá
             D         G    D/F#
Nunca me enseñaste a estar solo.
C             D
No me puedo dormir
        G      D    C
Desde que no estas acá
             D         G    D/F#
Nunca me enseñaste a estar solo.

Punteo 2
E  |----------------------------------------||
B  |----------------------------------------||
G  |---------------------------------0------||
D  |--555-444-222-000--------------2---2----||
A  |------------------333-222--2h3-------3--||
E  |----------------------------------------||

E  |--------------------------------------(3)---||
B  |--------------------------------------(0)---||
G  |--------------------------------------(0)---||
D  |--555-444-222-000----------------0----(0)---||
A  |------------------333-2--0-2-3-3---0--(2)---||
E  |--------------------------------------(3)---||

Bueno aca les dejo un temaso
de jovenes espero que les guste
una aclaracion el punteo 1 se hace con
yeites rapidos donde los numeros estan juntos
Pablo
Suggest correction
Give kudos to tab author, rate the tab!
1 2 3 4 5
comments
print report bad tab
guest
Wanna post a correction for this tab? Suggest correction