Oops, an error
Loading. Please wait.

Nunca Pude Estar Solo Bass

16 views 1 this week
no commentswrite comment
1 2 3 4 5
3 more votes to show rating
add to favorites
launch autoscroll
font size
0
reset
guitar tuner
×
Best way to learn
"Nunca Pude Estar Solo"
Autoscroll
slow
fast
+/-
esc
set tempo
stop
Intro (solo la guitarra)

Entra el bajo y hace

G|----------------------------
D|--------9--7-----------------
A|--------------9--7--9-7---5--
E|-5...-7----------------------

G|----------------------------------
D|----------------------------------
A|-------------------9--7--9-7---5--
E|-5...---7-7-7-7-7-----------------

Estribillo
Y si queres ahora....
G|---------------------------------------------
D|---------------------------------7--5--------
A|--------------------------------------7--5---
E|-3--3-3--5--5-5---3--3-3--5--5-5-------------
Los Domingos ensayo....
G|-----------------------------------------------------------
D|--------------------------------------9--7-----------------
A|-------------------------------7---9-------9--7---9--7--5--
E|-3--3-3--5--5-5---7-7-7--7--10-----------------------------
Y si queres ahora...
G|---------------------------------------------
D|---------------------------------7--5--------
A|--------------------------------------7--5---
E|-3--3-3--5--5-5---3--3-3--5--5-5-------------
Los domingos ensayo...
G|------------------------------
D|------------------------------
A|------------------------------
E|-3--3-3--5--5-5--------------

G|-------------------------
D|-------------------------
A|-5--5-5-5----------5----- x2
E|----------9--4--9----9---

Verso

G|-------------------------
D|-------------------------
A|-5--5-5-5----------5----- x3
E|----------9--4--9----9---

G|-------------------------
D|-------------------------
A|-5--5-5-5----------------
E|----------9-9-9-9-9-9-9--

Sabes que nunca...
G|-----------------------------------
D|--------------9--7-----------------
A|-------------------9--7--9-7---5---
E|-5--5-5-----7----------------------

G|------------------------------------
D|------------------------------------
A|---------------------9--7--9-7---5--
E|-5--5-5---7-7-7-7-7-----------------

Estribillo

Y si queres ahora....
G|---------------------------------------------
D|---------------------------------7--5--------
A|--------------------------------------7--5---
E|-3--3-3--5--5-5---3--3-3--5--5-5-------------
Los Domingos ensayo....
G|-----------------------------------------------------------
D|--------------------------------------9--7-----------------
A|-------------------------------7---9-------9--7---9--7--5--
E|-3--3-3--5--5-5---7-7-7--7--10-----------------------------
Y si queres ahora...
G|---------------------------------------------
D|---------------------------------7--5--------
A|--------------------------------------7--5---
E|-3--3-3--5--5-5---3--3-3--5--5-5-------------
Los domingos ensayo...
G|------------------------------
D|------------------------------
A|------------------------------
E|-3--3-3--5--5-5--------------

G|-------------------------
D|-------------------------
A|-5--5-5-5----------5----- x7
E|----------9--4--9----9---

Sabes que nunca...
G|-----------------------------------
D|--------------9--7-----------------
A|-------------------9--7--9-7---5---
E|-5--5-5-----7----------------------

G|------------------------------------
D|------------------------------------
A|---------------------9--7--9-7---5--
E|-5--5-5---7-7-7-7-7-----------------


despues sigue igualk x eso no lo puse
weno lo saque lo mas parecido que pude
suerte y q sea rock!
lautah
Suggest correction
Give kudos to tab author, rate the tab!
1 2 3 4 5
comments
print report bad tab
guest
You may want to rate the tab now too:
select rating
Wanna post a correction for this tab? Suggest correction