Oops, an error
Loading. Please wait.

Nunca Pude Estar Solo Tab

14 views 1 this week
no commentswrite comment
1 2 3 4 5
3 more votes to show rating
add to favorites
launch autoscroll
font size
0
reset
how to read this tab
guitar tuner
Autoscroll
slow
fast
+/-
esc
set tempo
stop
Help us to improve Ultimate-Guitar.com Take our survey!
×
Este es un arreglo que hice para 1º guitarra.

Este arreglo va en el verso que dice:

LA                         SIm
SABES QUE NUNCA PUDE ESTAR SOLO
LA                         SIm
SABES QUE NUNCA PUDE ESTAR SOLO

E -------------------------------------------|este arreglo lo hago casi en
B -------------------------------------------| todo el tema
G -----------------16--14--------------------| x2
D -------------------------16----14--12------|
A --12----15------------------------------14-|
E -------------------------------------------|
Este arreglo va en el estribillo
SOL           LA   SOL       LA
Y SI QUERES AHORA PODES PASARME A BUSCAR
SOL            LA            SIm
LOS DOMINGOS ENSAYO EN LO DE MARCE
SOL           LA   SOL       LA
Y SI QUERES AHORA PODES PASARME A BUSCAR
SOL            LA            SIm
LOS DOMINGOS ENSAYO EN DONDE SABES


E --------------------------------------
B ---------7------------------7---------
G --7---9----9---7-----7---9----9---7---
D --------------------------------------
A --------------------------------------
E --------------------------------------


E -----------------------------------------
B -3--1------------------------------------
G --------2/4------------------------------
D ----------------5----7-------------------
A -----------------------------------------
E -----------------------------------------
Suggest correction
Give kudos to tab author, rate the tab!
1 2 3 4 5
comments
print report bad tab
guest
You may want to rate the tab now too:
select rating
Wanna post a correction for this tab? Suggest correction