Oops, an error
Loading. Please wait.

Que Haces Tab

14 views 1 this week
no commentswrite comment
1 2 3 4 5
3 more votes to show rating
add to favorites
launch autoscroll
font size
0
reset
how to read this tab
guitar tuner
×
Best way to learn
"Que Haces"
Autoscroll
slow
fast
+/-
esc
set tempo
stop
intro:


  1/-----------------------/-------------------------
  2/-----------------------/-------------------------
  3/-----------------------/-------------------------
  4/-2-----7---2-------7---/-2-----7---2-------7-7---
  5/-2-----7---2-------7-5-/-2-----7---2-------7-7-5-
  6/-0-3-4-5-3-0-3-5-3-5-3-/-0-3-4-5-3-0-3-5-3-5-5-3-


  Que haces que no te moves?,
Que haces que estas tan hard?,
Quien sos anoche te vi?,
Que haces que estas sin dormir?,

  1/-----------------------/-------------------------
  2/-----------------------/-------------------------
  3/-----------------------/-------------------------
  4/-2-----7---2-------7---/-2-----7---2-------7-7---
  5/-2-----7---2-------7-5-/-2-----7---2-------7-7-5-
  6/-0-3-4-5-3-0-3-5-3-5-3-/-0-3-4-5-3-0-3-5-3-5-5-3-


Que miras si soy asi?,
Nadie te pide una opinion,
deja que yo sea feliz,
dejame asi que yo estoy bien

LA-RE#-RE-RE#-RE
(ab-la-re#-re-re#-re)x 3

Sin dormir

  1/-----------------------/-------------------------
  2/-----------------------/-------------------------
  3/-----------------------/-------------------------
  4/-2-----7---2-------7---/-2-----7---2-------7-7---
  5/-2-----7---2-------7-5-/-2-----7---2-------7-7-5-
  6/-0-3-4-5-3-0-3-5-3-5-3-/-0-3-4-5-3-0-3-5-3-5-5-3-


Que haces que no te moves?,
Que haces que estas tan hard?,
Quien sos anoche te vi?,
Que haces que estas sin dormir?,


LA-RE#-RE-RE#-RE
(ab-la-re#-re-re#-re)x 3

  1/-----------------------/-------------------------
  2/-----------------------/-------------------------
  3/-----------------------/-------------------------
  4/-2-----7---2-------7---/-2-----7---2-------7-7---  x 9
  5/-2-----7---2-------7-5-/-2-----7---2-------7-7-5-
  6/-0-3-4-5-3-0-3-5-3-5-3-/-0-3-4-5-3-0-3-5-3-5-5-3-

solo de armonica


final


LA-LA-LA

LA-LA-LA


4/-2-----7---2--
5/-2-----7---2--
6/-0-3-4-5-3-0--
Suggest correction
Give kudos to tab author, rate the tab!
1 2 3 4 5
comments
print report bad tab
guest
You may want to rate the tab now too:
select rating
Wanna post a correction for this tab? Suggest correction