Oops, an error
Loading. Please wait.

Que Haces Bass Tab

16 views 1 this week
no commentswrite comment
1 2 3 4 5
3 more votes to show rating
add to favorites
launch autoscroll
font size
0
reset
guitar tuner
×
Best way to learn
"Que Haces"
Autoscroll
slow
fast
+/-
esc
set tempo
stop
Base verso

G|-------------------
D|-------------------
A|-------------------  x2
E|-0-0--3-4-5--3--5--

G|-----------------------
D|-----------------------
A|--------------3--5---7-
E|-0-0--3-4-5------------

G|------------------------
D|------------------------
A|----------------7--5--3-
E|-0-0--3-4-5--3----------


Base de solo

G|------------------
D|------------------
A|------5-6-7--5--7-
E|-7-7--------------


Corte


G|------------------------------
D|---------9-9--9-7-------------
A|-------------------9--8-------
E|-7-7-7------------------------


bueno la sake bastante parecida
no sakela parte de cuando recien empiezapero la base esta bien
fijense porq en el solo hace la base normal y despues hace la otra
cuando se escucha ams aguda es la base q puse como base de solo
y el corte es ese q hace al final del tema
lo sake igual solo q puse menos notas ay
nos vemos
suerte
lautah
Suggest correction
Give kudos to tab author, rate the tab!
1 2 3 4 5
comments
print report bad tab
guest
You may want to rate the tab now too:
select rating
Wanna post a correction for this tab? Suggest correction