Oops, an error
Loading. Please wait.

Todavía No Puedo Olvidarte Tab

version 2
version 2

Whole song

44 views 3 this week
no commentswrite comment
1 2 3 4 5
3 more votes to show rating
add to favorites
×
Save as Personal and add changes to this tab that will be seen only by you. Learn more ›
×
You can save this tab as Personal to edit and correct it or add notes. All changes will be seen only by you. Learn more »
save as personal
new!
launch autoscroll
font size
0
reset
how to read this tab
guitar tuner
Autoscroll
slow
fast
+/-
esc
set tempo
stop
Solo

e|-----------------------------------------------
B|-----------------------------------------------
G|-14b-14b---14ba-p12-14v--14-12h14-12-----------
D|-------------------------------------14-12-14v-
A|-----------------------------------------------
E|-----------------------------------------------


e|-------------------------------------------------------------
B|-------------------------------------------------------------
G|-12-12-12-12-12-12-12-12-12-12-------------------------------
D|-------------------------------------------------------------
A|---------------------------------s12p10--12-10--10-12h14p12--
E|-------------------------------------------------------------

  |-------P.M.------------------|


e|-------------------------------------------------------------
B|-------------------------------------------------------------
G|-------------------------------------------------------------
D|-------------------------------------------9------9-9-10p9---
A|-10-12-10b------10b--------------10-----10---10--------------
E|-----------12v------12v---12-12------12----------------------


e|-------------------------------------------------------------
B|-------------------------------------------------10-12-12p10-
G|-----9-----9-9-11p9---9-11-12p11---11-14-14p12---------------
D|-9-9---9-----------------------------------------------------
A|-------------------------------------------------------------
E|-------------------------------------------------------------


e|---------------------10--------------------------------------
B|-10-12-13p12---10-12----12---13p12-13p12--10-13p12-12p10-----
G|---------------------------------------------------------12--
D|-------------------------------------------------------------
A|-------------------------------------------------------------
E|-------------------------------------------------------------


e|-------------------------------------------------------------
B|-10----------------------------------------------------------
G|-----12p11-12p11--9-11-9-9s7-----9s7---7---------------------
D|-----------------------------7-------9----s7-5--7v-5---------
A|-------------------------------------------------------------
E|-------------------------------------------------------------


                                                                    C
e|------------------------------------------------------------------0-
B|-----8--7---8-7-0-------------------------------------------------1-
G|---7--------------9-8-7-------------------------------------------0-
D|-7-----------------------9-9-9-9h10-9-7s5--s9v--------------------2-
A|-------------------------------------------------9-7--------------3-
E|-----------------------------------------------------10-8--0-2-3----

  |-Pm--|
Suggest correction
Give kudos to tab author, rate the tab!
1 2 3 4 5
comments
print report bad tab
guest
Wanna post a correction for this tab? Suggest correction