Oops, an error
Loading. Please wait.

Todo Me Alcanza Chords

6 views 1 this week
no commentswrite comment
1 2 3 4 5
3 more votes to show rating
add to favorites
launch autoscroll
font size
0
reset
transpose
0
reset
simplify chords
display chords
guitar tuner
×
Best way to learn
"Todo Me Alcanza"
Autoscroll
slow
fast
+/-
esc
set tempo
stop
             A5#           F                 A5#     F      
E|-9-9--9-9---6--------|-9-9----------|9-9--9-9--6-----------||
B|-8-8--8-8---6--------|-8-8----------|8-8--8-8--6-------6-6-||
G|--------------8-6
D|------------------8-8|-----6-8------|--------------8-8-----||
A|---------------------|--------------|----------------------||
E|---------------------|--------------|----------------------||
          x 2               LA5#
Ya te conte que estube mal

D5#
por un antuguo amor,

A5#
ahora que estoy con vos

D5#
me cordura esta Knoc Out,

A5#
ahora que lo pienso

D5#
ya tengo a quien cantar,    

        F
todo me alcanza

                   A5#       F
para decirte lo que siento.


Tus ojos me gustaron 
desde el día en que te vi,
tu boca me seduce
y me pierdo cuando hablas,
ahora que lo pienso
ya tengo a quien cantar,
Todo me alcanza
para decirte lo que siento.

Arpegio en RE# - DO# (REPITE UN PAR DE VECES)

Te invito a tomar
un trago de mi copa,
quiero que seas vos
la dueña de este amor,
si vos no me mentis 
yo te voy a cuidar,
todo me alcanza
para decirte lo que siento,
Todo me alcanza...

E|-9-9--9-9--6-||
B|-8-8--8-8--6-||


Aguante los Jovenes!! Saludos!!
Suggest correction
Give kudos to tab author, rate the tab!
1 2 3 4 5
comments
print report bad tab
guest
You may want to rate the tab now too:
select rating
Wanna post a correction for this tab? Suggest correction