Oops, an error
Loading. Please wait.

Voy Borracho Tab

2 views 1 this week
no commentswrite comment
1 2 3 4 5
3 more votes to show rating
add to favorites
launch autoscroll
font size
0
reset
how to read this tab
guitar tuner
Autoscroll
slow
fast
+/-
esc
set tempo
stop
Help us to improve Ultimate-Guitar.com Take our survey!
×
  Primer Solo
e|-------------------------------------------------------------
B|-6--6--6---5----5-3----3--------3-5-----3------3-------------
G|-5b-5b-5b--5----5-3b---3b-------3-5-----3b-----3b------------
D|-------------5-------5------5-5-----5-5----5-5----5-5-5------
A|-------------------------------------------------------------
E|-------------------------------------------------------------

e|-------------------------------------------------------------
B|-6--6--6---5---5-3----3--------------------------------------
G|-5b-5b-5b--5---5-3b---3b-----------3b------------------------
D|-------------5------5--------2-5------5--2p0-----------------
A|--------------------------s5-----5-----------3-1-------------
E|-------------------------------------------------3-3---------

e|-------------------------------------------------------------3
B|-s8-8-8-8-8-8--8-8s10-10b---s6-5-6-5-6-5-6-5-6--5ba-p3-5-3---3
G|-----------------------------------------------------------5--
D|--------------------------------------------------------------
A|--------------------------------------------------------------
E|--------------------------------------------------------------

e|-----3-----3-----3-----3--s6-6-6-6-6-6-6----------------------
B|-3h5---3h5---3h5---3h5----s5-5-5-5-5-5-5-----8-8-8-8-8-8-8----
G|------------------------------------------s9------------------
D|--------------------------------------------------------------
A|--------------------------------------------------------------
E|--------------------------------------------------------------

e|-s13-10----------------------------
B|-s13----13-11-13b/-13/--11---------
G|---------------------------12-12v--
D|-----------------------------------
A|-----------------------------------
E|-----------------------------------


  Segundo Solo
e|-------------------------------------------------------------
B|-6--6--6---5----5-3----3--------3-5-----3------3-------------
G|-5b-5b-5b--5----5-3b---3b-------3-5-----3b-----3b------------
D|-------------5-------5------5-5-----5-5----5-5----5-5-5------
A|-------------------------------------------------------------
E|-------------------------------------------------------------

e|-----------------------------------------3-------3---3-6b-3----3-
B|---------------------------3-----------3---3--6b---3--------6b---
G|---------------------------3b-3---3-5b---------------------------
D|--------------------------------5--------------------------------
A|-1p0---1p0---1p0--s3-1-3s5---------------------------------------
E|-----3-----3-----------------------------------------------------
Suggest correction
Give kudos to tab author, rate the tab!
1 2 3 4 5
comments
print report bad tab
guest
You may want to rate the tab now too:
select rating
Wanna post a correction for this tab? Suggest correction