Oops, an error
Loading. Please wait.

Cristo No Está Muerto Bass

214 views 1 this week
no commentswrite comment
1 2 3 4 5
3 more votes to show rating
add to favorites
×
Save as Personal and add changes to this tab that will be seen only by you. Learn more ›
×
You can save this tab as Personal to edit and correct it or add notes. All changes will be seen only by you. Learn more »
save as personal
new!
launch autoscroll
font size
0
reset
guitar tuner
Autoscroll
slow
fast
+/-
esc
set tempo
stop
es algo muy sencillo paro hay les va el bajiado

   cristo no esta muerto,el esta vivo
E-------3-------------------3--------------
A--3-0----0-3----------3-0----0-3------------
D--------------0-1-2---------------0-1-2----
G-------------------------------------------

  cristo no esta muerto, el esta vivo

E-------------------------------------------
A------3------------------3----------------
D--3-0---0-3---------3-0----0-3---------
G------------0-1-2--------------0-1-2-----


  cristo no esta muerto,el esta vivo
E-------3-------------------3--------------
A--3-0----0-3----------3-0----0-3------------
D--------------0-1-2---------------0-1-2----
G-------------------------------------------

  cristo no esta muerto, el esta vivo

E-------------------------------------------
A------3------------------3----------------
D--3-0---0-3---------3-0----0-3---------
G------------0-1-2--------------0-1-2-----


lo siento en mis manos          lo sien to en mis pies

E-----------------------------------------------------------
A-----------------------1-2-3----------------------------1-2-3
D_-----------------------------------------------------------
G------------------------------------------------------------

  lo siento en todo mi ser
E-------------------------------------
A---3--3-3--3-3-3-3-3-------------------
D-----------------------------------------
G---------------------------------------
Suggest correction
Give kudos to tab author, rate the tab!
1 2 3 4 5
comments
print report bad tab
guest
Wanna post a correction for this tab? Suggest correction