Oops, an error
Loading. Please wait.

Eres Señor Vencedor Tab

124 views 1 this week
no commentswrite comment
1 2 3 4 5
3 more votes to show rating
add to favorites
×
Save as Personal and add changes to this tab that will be seen only by you. Learn more ›
×
You can save this tab as Personal to edit and correct it or add notes. All changes will be seen only by you. Learn more »
save as personal
new!
launch autoscroll
font size
0
reset
how to read this tab
guitar tuner
Autoscroll
slow
fast
+/-
esc
set tempo
stop
Author
Unregistered
ESTE INTRO ES EL QUE SUENA MAS SIMILAR A LAS TROMPETAS


e-----------------------------------------
B----------------------------------9------
G--10-10-8-10---10-8-10---10-10-10---12---

e-----------------------------------------
B----------------------------------11-13--
G--10-10-8-10---10-8-10---10-10-10--------

e-----------------------------------------
B-----------9--9-8-------8-9--8-8---------
G--10-10-10---------8-10----------10------   x2


Am
ERES SEÑOR VENCEDOR EL INVENCIBLE

F
ERES CAMPEON GANADOR EN BATALLA

Dm            E                      Am
ERES MI REY MI DIOS EL QUE CUIDA A SU PUEBLO //


     C           G         Am
POR ESO YO TE CANTO Y TE ALABO
                  F              Dm            G
PORQUE SE  QUE ME PROTEGES PORQUE ESTOY DE TU LADO
     C        G            Am
POR ESO YO TE CANTO Y TE ADORO
              F               Dm             G
PORQUE SE QUE NUNCA JAMAS ME DEJARAS DESAMPARADO    (II x2)

e-----------------------------------------
B----------------------------------9------
G--10-10-8-10---10-8-10---10-10-10---12---

e-----------------------------------------
B----------------------------------11-13--
G--10-10-8-10---10-8-10---10-10-10--------

e-----------------------------------------
B-----------9--9-8-------8-9--8-8---------
G--10-10-10---------8-10----------10------   x2

BISS


(II x2) -----------] SE REPITE 2 VECES LUEGO DEL BISS

EL SEÑOR ES NUESTRO AYUDADOR, EL SOSTIENE NUESTRAS MANOS.
ALABEMOS A JEHOVA CON TODAS NUESTRAS FUERZAS Y DE TODO CORAZON.
Suggest correction
Give kudos to tab author, rate the tab!
1 2 3 4 5
comments
print report bad tab
guest
Wanna post a correction for this tab? Suggest correction