Oops, an error
Loading. Please wait.

Nada Haces Por Mí Chords

version 2
version 2

Whole song

10 views 1 this week
no commentswrite comment
1 2 3 4 5
3 more votes to show rating
add to favorites
launch autoscroll
font size
0
reset
transpose
0
reset
display chords
guitar tuner
Autoscroll
slow
fast
+/-
esc
set tempo
stop
Help us to improve Ultimate-Guitar.com Take our survey!
×
Qué tal, me dí cuenta que en La Cuerda ya había una versión de ésta canción
pero en realidad estaba mal y los acordes no eran los correctos.
Yo ya la había sacado, incluso saqué un video en YouTube de esa canción.
Yo mismo la saqué y todo lo que tenga que ver.
Disfrútenlo :) mi Twitter es: HugoMiztli y mi correo hugomiztli@
para cualquier duda o aclaración.

ACORDES USADOS
  Bb F  C  Dm
E|------1----0----1-------
B|-3----1----1----3-------
G|-3----2----0----2-------
D|-3----3----2----0-------
A|-1----3----3------------
E|------1-----------------

                         Bb
Con un sueño desperté buscando
F        C             Bb
  con un sueño pude descubrir de ti
F        C                   Bb
  hay una luz que me sigue alumbrando
C       Dm            Bb
  y un abismo cerca de mi


       F C        Bb
Y aprendí,  y aprendí
C       Dm            Bb
  y un abismo cerca de mi


         Bb
Oh oh oh oh oh oh
         F
Oh oh oh oh oh oh
       C
Desnúdate también
       Dm
ahora mismo para ti, conmigo
         Bb
oh oh oh oh oh oh
         F
Oh oh oh oh oh oh
      C
Para ti, para ti
     Dm
que nada haces por mí


Puente
(Ésta parte se toca justo cuando entra el corte y es sólo eso
les recomiendo que dejen sonar las notas)
E|----------8---------
B|------6---------6---
G|--7-7---7-----7-----
D|--------------------
A|--------------------
E|--------------------


(En el puente se escuchan diferentes guitarras, ésta es la que suena más
y se toca en todo el puente, les sugiero escuchar bien esa parte
para que sepan en qué tiempos se toca y se escuche bien)
E|--------------------5--6--5-----------------------
B|-----6-----8--6--------------8--6-----------6-----
G|--7-----7--------7-----------------7--5--7-----7--
D|--------------------------------------------------
A|--------------------------------------------------
E|--------------------------------------------------


F        C                Bb
  Si me quedo solo inmóvil caigo
C         Dm               Bb
  si no escucho lo que tengo que decir
F       De                  Bb
  si obedezco a ciegas voy negando
C      Dm                 Bb
  la razón por la que vine aquí


         Bb
Oh oh oh oh oh oh
         F
Oh oh oh oh oh oh
       C
Desnúdate también
       Dm
ahora mismo para ti, conmigo
         Bb
oh oh oh oh oh oh
         F
Oh oh oh oh oh oh
      C
Para ti, para ti
     Dm
que nada haces por mí


         Bb
Oh oh oh oh oh oh
         F
Oh oh oh oh oh oh
       C
Desnúdate también
       Dm
ahora mismo para ti, conmigo
         Bb
oh oh oh oh oh oh
         F
Oh oh oh oh oh oh
      C
Para ti, para ti
     Dm
que nada haces por mí


OUTRO
(Al final se quedan sólo unos teclados, esto es lo que tocan
expresados en guitarra)
(Tóquenlo todo seguido y sin parar, igual, les recomiendo,
escuchen primero esa parte y después denle el ritmo necesario)

PRIMERA PARTE
E|--------------
B|--------------
G|-7---10---9---
D|-x---x----x---
A|-5---8----7---
E|--------------

SEGUNDA PARTE
(Aquí los que están más pegados es porque sólo lo tocas como dos veces
y te pasas al siguiente, es como el cambio para la nota)
E|---------------------
B|---------------------
G|-7--9-10--12-9---10--
D|-x--x-x----x-x---x---
A|-5--7-8---10-7---8---
E|---------------------


Eso fue todo, espero y les sirva mucho, ya que es una excelente canción.
Les recuerdo mi Twitter: @HugoMiztli por si tienen alguna duda.
Suggest correction
Give kudos to tab author, rate the tab!
1 2 3 4 5
comments
print report bad tab
guest
You may want to rate the tab now too:
select rating
Wanna post a correction for this tab? Suggest correction