Oops, an error
Loading. Please wait.

El Cazador De Mariposas Chords

19 views 1 this week
no commentswrite comment
1 2 3 4 5
3 more votes to show rating
add to favorites
launch autoscroll
font size
0
reset
transpose
0
reset
simplify chords
display chords
guitar tuner
Autoscroll
slow
fast
+/-
esc
set tempo
stop
Help us to improve Ultimate-Guitar.com Take our survey!
×
NOTA: SE TOCA A RITMO DE BOSSANOVA POR LO QUE ENTONCES LOS TONOS
SON UN POCO COMPLEJOS
SOLO TRATEN DE DARLE EL RITMO Y SALE. TIENEN QUE ENSAYARLA.


INTRO: E1 - Bm(VII)
                         Am7(V)  Dº1                    G6
RECUERDO QUE A MARCEU EN MARZO     SE LE QUEBRABA EL CORAZON
C1     Am7/F#       Dº2(B7)      Dº3   Dº4
AL ASFIXIAR AQUELLA FRAGIL   MARIPO----SA
          Am7         Dº1            G6        C1
HOY TENGO DICHA SENSACION CUANDO EQUIVOCO LA RAZON
            Am7/F#         Dº2             E2
Y ASI ME ENCUENTRO CON TUS OJOS QUE SOLLOZAN.

                 Am7 Am7/F#   Dº2     E2
HAZ ANDADO EL SENDE-RO           A MI LADO
                Am7 Am7/F#  B7     Dº3   Dº4
CON TU FE Y ESPERAN-ZA         DE ALIA---DOS
                Am7   Dº1              G6
ALUMBRANDO EL CAMINO, AFRONTANDO EL DESTINO
Em                Dº5   Am7/F#       (C)       B7
CON LA MAGIA Y TERNU--RA        DE TU FORMA DE SER.

                 Am7  Am7/F#     B7 E2
CON TU SUAVE Y ROSA---DA      SONRISA
            Am7 Am7/F#  Dº2       Dº3 Dº4
QUE LE ROBA FRESCU------RA   A LA BRISA
                 Am7  Dº1             G6
VAS LLENANDO MIS DIAS     DE VITAL ALEGRIA
C1     Em      Dº5  Am7/F#         Dº2         E1 - Bm(VII)
SIN EMBARGO DE PRONTO      LO HECHO TODO A PERDER.

                         Am7(V)  Dº1                    G6
RECUERDO QUE A MARCEU EN MARZO     SE LE QUEBRABA EL CORAZON
C1     Am7/F#       Dº2(B7)      Dº3   Dº4
AL ASFIXIAR AQUELLA FRAGIL   MARIPO----SA
          Am7         Dº1            G6        C1
HOY TENGO DICHA SENSACION CUANDO EQUIVOCO LA RAZON
            Am7/F#         Dº2             E2
Y ASI ME ENCUENTRO CON TUS OJOS QUE SOLLOZAN.


AÑORANDO TU AROMA Y TU PELO
Y TU ENTREGA A MIS MISMOS ANHELOS
TU PACIENCIA INFINITA, TU CALOR, TUS CARICIAS
ME HA SEGADO EL ORGULLO Y TE PIDO PERDON.

SE HA QUEBRADO EL CRISTAL DE LA CALMA
SE HA LLENADO DE MAL TU MIRADA
Y TU CARA BONITA SE HA TORNADO MARCHITA
Y LO QUE TENGO A LA MANO SOLO ES ESTA CANCION.

                         Am7(V)  Dº1                    G6
RECUERDO QUE A MARCEU EN MARZO     SE LE QUEBRABA EL CORAZON
C1     Am7/F#       Dº2(B7)      Dº3   Dº4
AL ASFIXIAR AQUELLA FRAGIL   MARIPO----SA
          Am7         Dº1            G6        C1
HOY TENGO DICHA SENSACION CUANDO EQUIVOCO LA RAZON
            Am7/F#         Dº2             E2
Y ASI ME ENCUENTRO CON TUS OJOS QUE SOLLOZAN.

NOTA: TERMINA CON UN BAJEO (FIGURA EN LAS CUERDAS GRAVES DE LA GUITARRA)
Y DESPUES UNOS ARMONICOS EN LAS TRES PRIMERAS CUERDAS TRASTE 12.

    E1
  8   7   6   5
|---|---|---|---|X
|---|-2-|---|---|
|---|---|---|-1-|
|---|-3-|---|---|
|---|-4-|---|---|
|---|---|---|---|X

   Bm(VII)
  8   7   6   5
|---|(1)|---|---|(X)
|---|(1)|---|---|(X)
|---|-1-|---|---|
|---|-1-|---|---|
|---|-1-|---|---|
|---|-1-|---|---|

    Am7
  7   6   5   4
|---|---|-1-|---|
|---|---|---|---|X
|---|---|-2-|---|
|---|---|-3-|---|
|---|---|-4-|---|
|---|---|---|---|X

    Dº1
  6   5   4   3
|---|---|---|---|X
|---|-3-|---|---|
|---|---|-1-|---|
|---|-4-|---|---|
|---|---|-2-|---|
|---|---|---|---|X

     G6
  5   4   3   2
|---|---|-1-|---|
|---|---|---|---|X
|---|-3-|---|---|
|---|-4-|---|---|
|---|---|-2-|---|
|---|---|---|---|X

       C1
  4   3   2   1
|---|---|---|---|X
|---|-2-|---|---|
|---|---|-1-|---|
|-4-|---|---|---|
|---|-3-|---|---|
|---|---|---|---|X

      Am/F#
  4   3   2   1
|---|---|-2-|---|
|---|---|---|---|X
|---|---|-3-|---|
|---|---|-4-|---|
|---|---|---|-1-|
|---|---|---|---|X

    Dº2
  4   3   2   1
|---|---|---|---|X
|---|---|-3-|---|
|---|---|---|-1-|
|---|---|-4-|---|
|---|---|---|-2-|
|---|---|---|---|X

     Dº3
  4   3   2   1
|---|---|---|---|X
|---|---|-1-|---|
|---|-3-|---|---|
|---|---|-2-|---|
|---|-4-|---|---|
|---|---|---|---|X


     Dº4
  8   7   6   5
|---|---|---|---|X
|---|-3-|---|---|
|---|---|-1-|---|
|---|-4-|---|---|
|---|---|-2-|---|
|---|---|---|---|X


    Am7
  7   6   5   4
|---|---|-1-|---|
|-3-|---|-1-|---|
|---|---|-1-|---|
|---|---|-1-|---|
|---|---|-1-|---|
|---|---|-1-|---|


     E2
  4   3   2   1
|---|---|---|---|(X)
|---|---|-1-|---|
|---|---|-2-|---|
|---|---|---|---|
|---|-4-|---|---|
|---|---|-3-|---|


     Dº5
  6   5   4   3
|---|---|---|---|X
|---|---|-1-|---|
|---|-3-|---|---|
|---|---|-2-|---|
|---|-4-|---|---|
|---|---|---|---|X

SALUDOS DESDE LA PUERTA DE ENTRADA AL MUNDO MAYA
Suggest correction
Give kudos to tab author, rate the tab!
1 2 3 4 5
comments
print report bad tab
guest
You may want to rate the tab now too:
select rating
Wanna post a correction for this tab? Suggest correction