Oops, an error
Loading. Please wait.

A Tajitos De Caña tab

version 2
version 2

Whole song

58 views 1 this week
no commentswrite comment
1 2 3 4 5
3 more votes to show rating
add to favorites
×
Save as Personal and add changes to this tab that will be seen only by you. Learn more ›
×
You can save this tab as Personal to edit and correct it or add notes. All changes will be seen only by you. Learn more »
launch autoscroll
font size
0
reset
how to read this tab
guitar tuner
edit
Autoscroll
slow
fast
+/-
esc
set tempo
stop
Que tal amigos fíjense que estaba revisando las otras
transcripciones de esta canción y no están mal suenan bien
pero no es la forma como la toca Juan Fernando
principalmente por que lleva capo en el 2do traste
sino me creen traten de escucharlo en la versión en vivo,
esta canción le gusta mucho a un amigo mío llamado VICENTE
y el fue el que me dio a conocer la música de este artista el cual me pidió
que sacara la trasncripcion correctamente pues aquí tienes amigo.

También la quiero dedicar para una persona
compañera en el amor en algún tiempo de mi vida
que a un recuerdo tus ojos
Para ti mis ojos verdes

Versión en vivo

      654321
B7    021202
Bm    x24432
C     x32010
Em    022000
E7    020100
F#    244322
F#7   242322
Fam#7 224252
G     300033

Intro?
Capo 2do traste

      F#m7*      F#m7*                           FA#7
 E|---2-------|--2--------2----------2------------2------------|
 A|-----------|------------------------------------4-----------|
 D|----4------|---4--4-----4--4-------4---4---------2----------|
 G|-----2-----|----2--2-----2---2------2---2---------3---------|
 B|------5----|--------5---------5----------5---------2--------|
 e|-----------|----------------------------------------2-------|
                                                  Aquí comienza


FA#7                  Bm               G   (G)(F#)(E)
Para tus ojos verdes amor,   de caña verde
         B7                                FA#m7* F#7
Para tu piel dorada mi ser,   de espiga sembrada


FA#7                  Bm               G   (G)(F#)(E)
Para tus ojos verdes amor,   de caña verde
         B7                                FA#m7* F#7
Para tu piel dorada mi ser,   de espiga sembrada


               Sim/A
Para ti mi cancion,
                  G
bajará a la quebrada.
              SI7                    FA#
Ojalá llegue al rio, donde estas amada.
             Sim/A                         G
Y te diga al oido, que el cañar me ha soplado y que ha
               SI7                         Em
Quebrado mis versos de amor, para decirte mia.

CORO:
Rasgueado


Em            E7                 LAm    Lam7/G
A tajitos de caña llegaste a mi vida,
Re/F#                             G  G/F#
a tajitos de miel endulzaste mi alma.
Em                 E7             LAm  Lam7/G
Y a tajitos de amor te fui queriendo
Re/F#                 G    B7                  Em E7
como la caña verde al sol,   y el pan a la espiga
  DO                   G    B7                 Em    F#
como la caña verde al sol,    y el pan a la espiga


intro

      F#m7*      F#m7*                           FA#7
 E|---2--------2--------2----------2------------2------------|
 A|----------------------------------------------4-----------|
 D|----4--------4--4-----4--4-------4---4---------2----------|
 G|-----2--------2--2-----2---2------2---2---------3---------|
 B|------5------------5---------5----------5---------2-------|
 e|---------------------------------------------------2------|


               Sim/A
Para ti mi canción,
                  G
bajará a la quebrada.
              SI7                    FA#
Ojalá llegue al rio, donde estas amada.
             Sim/A                         G
Y te diga al oído, que el cañar me ha soplado y que ha
               SI7                         Em
Quebrado mis versos de amor, para decirte mía.

CORO:
Rasgueado


Em            E7                 LAm    Lam7/G
A tajitos de caña llegaste a mi vida,
Re/F#                             G  G/F#
a tajitos de miel endulzaste mi alma.
Em                 E7             LAm  Lam7/G
Y a tajitos de amor te fui queriendo
Re/F#                 G    B7                  Em E7
como la caña verde al sol,   y el pan a la espiga
  DO                   G    B7                 Em    F#
como la caña verde al sol,    y el pan a la espiga


      F#m7*     F#m7*    F#m7*     F#m7*       F#m7*
 E|---2--------2--------2----------2-----------2---2--------|
 A|---------------------------------------------------------|
 D|----4--------4--4-----4--4-------4---4-------4---4-------|
 G|-----2--------2--2-----2---2------2---2-------2---2------|
 B|------5------------5---------5----------5----------5-----|
 e|---------------------------------------------------------|

Nota:
Estos son bajos  en la 6ta cuerda
(G)(F#)(E)

Hasta la siguiette vez?

            
            
Suggest correction
Creating personal tab
Creating personal tab
You can edit any tab online and save it as your Personal.

You can edit, replace or remove any tab part or add personal notes – all changes will be seen only by you.

Personal tabs can be accessed anytime from any device, even offline.
Learn more »
Give kudos to tab author, rate the tab!
1 2 3 4 5
comments
print report bad tab
guest
Wanna post a correction for this tab? Suggest correction