Oops, an error
Loading. Please wait.

Déjame Tab

version 1
version 1

Whole song

43 views 3 this week
no commentswrite comment
1 2 3 4 5
3 more votes to show rating
add to favorites
launch autoscroll
font size
0
reset
how to read this tab
guitar tuner
×
Best way to learn
"Déjame"
Autoscroll
slow
fast
+/-
esc
set tempo
stop
esta cancion originalmente esta a dos guitarras, me 
he tomado el trabajo de pasarlas a una sola para las
personas que tocan solas.


2/3-2-0---------5-----------2/3-2-0---------5-----------2/3-2-0--
--------3-----0-5-0-------0--.------3-----1-5-1-------1---------3
------------0-------0---0---------------2-------2---2------------
-----------------------0-----------------------------------------
--------------------------------------0-----------0-------------2
----------0-----------0------------------------------------------

-------5-----------2/3-2-0---------3-3----------
-----1-5-1-------1---------3-----3---3-3-------3
---2-------2---2---------------0---------0---0--
-0-----------0----------------------------------
------------------------------------------------
-----------------------------3-------------3----


2/3-2-0---------5-----------2/3-2-0---------5-----------2/3-2-0--
--------3-----0-5-0-------0--.------3-----1-5-1-------1---------3
------------0-------0---0---------------2-------2---2------------
-----------------------0-----------------------------------------
--------------------------------------0-----------0-------------2
----------0-----------0------------------------------------------

-------5-----------2/3-2-0---------3-3-----------2
-----1-5-1-------1---------3-----3---3-3-------0--
---2-------2---2---------------0---------0---2----
-0-----------0------------------------------------
-------------------------------------------2------
-----------------------------3--------------------


MIm
dejame
         LAm
dejame decir adios
RE7
ayudame
            SOL
ayudame a borrar tu voz

MIm
enseñame
             LAm
enseñame a seguir sin ti
RE7
intentare
                SOL            SI7
borrar mi pecho de este amor

hablame
cuentame que vas a hacer
con el dolor
de esto que no pudo ser

olvidame
y empieza a caminar sin mi
que este amor
se nos ha escapado ya

coro

MIm
no
                  LAm         RE7
tus caricias no saben a miel
                   SOL
tus olores no me hacen soñar
SI7
como ayer

ya
mis palabras no te dan calor
tus manos ya no tiemblan cuando estas
cerca de mi

dejame
dejame pedir perdon
vez lo di
todo lo que pude dar

por este amor
que nos ha hecho tanto bien
me perdi
buscandote en mi corazon.


esta cancion se la dedico a todos los guitarristas.
gracias...
Jefferson Silva
Colombia-Ibague
Suggest correction
Give kudos to tab author, rate the tab!
1 2 3 4 5
comments
print report bad tab
guest
You may want to rate the tab now too:
select rating
Wanna post a correction for this tab? Suggest correction