Oops, an error
Loading. Please wait.

Déjame Tab

version 2
version 2

Whole song

37 views 1 this week
no commentswrite comment
1 2 3 4 5
3 more votes to show rating
add to favorites
launch autoscroll
font size
0
reset
how to read this tab
guitar tuner
×
Best way to learn
"Déjame"
Autoscroll
slow
fast
+/-
esc
set tempo
stop
Hola guitarristas de  les habla un integrante del
mundo desconocido. Aquí les dejo esta excelente canción
y merece que no tenga ningún error, espero q* les guste, pues
pienso que esta al 100% pero esto se debe a las transcripciones
anteriores, me ayudaron bastante. Si tienen alguna duda hay les
dejo mi correo, además es mí primera transcripción y necesito moral
así que voten por favor .

   Em, Am, D9, Gmaj7 E7 B7

6ta---0--0---0-----3---0--0-
5ta---2--0---0-----0---2--2-
4ta---2--2---0-----0---0--1-
3ra---0--2---2-----0---1--2-
2da---0--1---1-----3---0--0-
1ra---0--0---0-----2---0--2-

DEJAME

INTRO:

1ra---2h3-2--0---0----5----0-------2h3-2-0--------------------
2da---3------0-3----0-5-0----0-----3-----0-3-1----1----1------
3ra----------------0-----0--0----------------2--2-2-2--2--2---
4ta--------------------------------------------2-----2---2----
5ta------------------------------------------0---------0------
6ta--------------0---------0----------------------------------

---2h3-2-0--------5-------------2h3-2-0---------2----------
---3-----0-3------3-1-----------3-----0-3-3---3-3-3---3----
-------------2--2-------2---2----------------0-----0-0-----
-------------0-0------0-0-0--------------------------------
-----------------------------------------------------------
------------------------------------------3---------3------

---7h8-7-5-3-0----5----0-------2h3-2-0--------5------------
---7----------0---3-0----0-----3-----0-3-1----3-1--1-------
---------------0-----0--0----------------2--2------2--2----
-------------------------------------------2-----2---2-----
-----------------------------------------0---------0-------
-------------0---------0-----------------------------------

---2h3-2-0--------5--------------2h3-2-0--------2----------2---
---3-----0-3------3-1------------3-----0-3-3--3-3-3-------0----
-------------2--2----2-2---------------------0-----0-----2-----
-------------0-0------0--------------------------------1-------
-----------------------------------------------------2---------
-------------------------------------------3-------------------

   dejame,    dejame..os        ayudame, ayudame a ..tu voz
----------------------------------------------------2-------2-------
------0-----0-------1-----1--------1-----1----------3-3-----3-3-----
-----0-0---0-0-----2-2---2-2------2-2---2-2-------0----0--0----0----
----2---0-2---0---2---2-2---2----0---0-0---0-----0-------0----------
-----------------0-----0--------0-----0-----0-----------------------
---0-----0--------------------------------------3-------3-----------

   enseñame,    ens...a se..       inte..,  librar mi ....amor..
---------------------0----------------------0---------2--------------
--------0--0h1--1h3------1-----1------1------1------3-3-3--0---------
-------0-0----0----0----2-2---2-2----2-2---2--2----0-----0-2-2-------
------2---2----2----2------2-2---2--0---0-0----------------1--1------
-----2----------------0-----0------0-----0---------------------2-2---
---0----------------------------------------------3------------------

  hablame,y cuentame...        con el dolor de..pudo ser,

----------------------------------------------------2-------2-------
------0-----0-------1-----1--------1-----1--------3-3-3---3---3-----
-----0-0---0-0-----2-2---2-2------2-2---2-2------0-----0-0-----0----
----2---0-2---0---2---2-2---2----0---0-0---0------------------------
-----------------0-----0--------0-----0-----0-----------------------
---0-----0--------------------------------------3-------3-----------

   olvidame y empieza a ca..sin mi que este ...capado ya.
---------------------0---------------------0--2------2---------2----
--------0--0h1--1h3------1-----1------1-----1--1---3-3-3------0-----
-------0-0----0----0----2-2---2-2----2-2-----2--2-0-----0----2------
------2---2----2----2------2-2---2--0---0------------------1--------
-----2----------------0-----0------0-----0----------------2---------
---0---------------------------------------------3------------------

Em              E7           Am
Nooo tus caricias no saben a miel

D9                     Gmaj7       B7
    tus olores no me hacen soñar como ayer

Em             E7        Am
ya mis palabras no te gan calor

D9                          Gmaj7         B7
    tus manos ya no tiemblan cuando estas serca de mi.

   Dejame,  dejame..don         talv...  todo  lo que pude dar

----------------------------------------------------2-------2-2-0----
------0-----0-------1-----1--------1-----1--------3-3-3---3------3---
-----0-0---0-0-----2-2---2-2------2-2---2-2------0-----0-0-----------
----2---0-2---0---2---2-2---2----0---0-0---0-------------------------
-----------------0-----0--------0-----0-----0------------------------
---0-----0--------------------------------------3-------3------------


   por...amog que ... tanto bien   y  me perdi buscando... corazón.

---------------------0---------------------0--2------2----------2----
--------0--0h1--1h3------1-----1------1-----1--1---3-3-3--0-----0----
-------0-0----0----0----2-2---2-2----2-2-----2--2-0-----0-2-2---2----
------2---2----2----2------2-2---2--0---0--------------------1--1----
-----2----------------0-----0------0--------------------------2-2----
---0---------------------------------------------3--------------0----


Em             E7            Am
Ya tus caricias no saben a miel

D9              Gmaj7               B7
    tus olores no me hacen soñar como ayer

Em             E7           Am
ya mis palabras no te dan calor


D9                           Gmaj7         B7
    tus manos ya no tiemblan cuando estas cerca de mi.


Em             E7     Am
No tus caricias no saben a miel

D9                    Gmaj7        B7
    tus olores no me hacen soñar como ayer

Em            E7        Am
ya mis palabras no te gan calor


D9                          Gmaj7        B7
    tus manos ya no tiemblan cuando estas Cerca de mi.


----2h3-2--0---0----5----0-------2h3-2-0--------------------
----3---3--0-3----0-5-0----0-----3---3-0-3-1----1----1------
-----------------0-----0--0----------------2--2-2-2--2--2---
---------------------------------------------2-----2---2----
-------------------------------------------0---------0------
---------------0---------0----------------------------------


---2h3-2-0-------5-------------2h3-2-0---0-----2------------
---3---3-0-3-----3-1-----------3---3-0-3-3---3-3-3------0---
-------------2--2-------2---2----------------0-----0---2----
-------------0-0------0-0-0---------------------------1-----
-----------------------------------------------------2------
------------------------------------------3----------0------


---2h3-2-0---0----
---3-----0-3-0----
-------------0----
-------------2----
-------------2----
-------------0----

Bogotá-Colombia "Patio Bonito"
(unknownworld_omar@
Corregida por "El loco abreu"... Buuu
Suggest correction
Give kudos to tab author, rate the tab!
1 2 3 4 5
comments
print report bad tab
guest
You may want to rate the tab now too:
select rating
Wanna post a correction for this tab? Suggest correction