Oops, an error
Loading. Please wait.

Máximas Para Sofia Tab

20 views 1 this week
no commentswrite comment
1 2 3 4 5
3 more votes to show rating
add to favorites
launch autoscroll
font size
0
reset
how to read this tab
guitar tuner
×
Best way to learn
"Máximas Para Sofia"
Autoscroll
slow
fast
+/-
esc
set tempo
stop
Juan José Lavaniegos
Maximas para Sofía.

SE TOCA CON CAPO EN EL TERCER TRASTE.


G
E|----------------------------------|--------------------
A|----------------------------------|--------------------
D|----------------------------------|--------------------
G|----0h2---------------------------|--------------------
C|--------0h2h3-------------------3-|---3-1-0--2-2h3---3-
e|--------------0-1/2-0-2-2h3-2-0---|-0--------------0---

                                            D - C - D
---------------------------------|---------|-----------
---------------------------------|---------|-----------
---------------------------------|---------|-----------
-0h2-----------------------------|---------|-----------
-----0h2h3---------------------3-|---3-1-0-|-----------
-----------0-1/2-0-2-2h3-3p2-0---|-0-------|-----------
Suggest correction
Give kudos to tab author, rate the tab!
1 2 3 4 5
comments
print report bad tab
guest
You may want to rate the tab now too:
select rating
Wanna post a correction for this tab? Suggest correction