Oops, an error
Loading. Please wait.

Canción De Sanidad Chords

version 1
version 1

Whole song

147 views 3 this week
no commentswrite comment
1 2 3 4 5
3 more votes to show rating
add to favorites
launch autoscroll
font size
0
reset
transpose
0
reset
simplify chords
display chords
guitar tuner
×
Best way to learn
"Canción De Sanidad"
Autoscroll
slow
fast
+/-
esc
set tempo
stop
 B/b           F           B/b           F
|-------------|-----------|-------------|-----------|
|-------------|-----------|--------1----|-----------|
|3---3-----3--|2---3-2----|3-3---3---3--|2---3-2----|
|--3---3------|--3-----3--|----3-------3|--3-----3--|
|3-------3----|-----------|3------------|-----------|
|-------------|1----------|-------------|1----------|

 B/b              F           G
|-------------|-----------|------------3-----------3------|
|--------1----|-----------|--------1-------3---3-----3-0--|
|3-3---3---3--|2---3-2-0--|0---0-----0---0---0---0-------0|
|----3-------3|--3-------3|--0---0------------------------|
|3------------|-----------|-------------------------------|
|-------------|1----------|3------------------------------|

Verso:

Bb/C F      Bb/C
Ven, tócame Señor
F            Bb/C
quiero recibir
F              G
tu preciosa unción
Bb/C F       Bb/C
Ven, sáname Señor
F             Bb/C
que un milagro hoy
F             G
quiero yo de tí

Coro:

G            G/F#
En el nombre de Jesús
      G/E       Dsus4
recibo sanidad
C9/12                  G/B
he tocado el borde de su manto
C9/12                  G/B
sano estoy por su Espíritu Santo

*tercera vez termina:

C9/12            Dsus4
sano estoy por su Espíritu Santo


Bb/C      x 3 3 3 1 1
G       x x 5 4 3 3
G/B     x 2 0 0 3 3
G/F#      x x 4 4 3 3
G/E     x x 3 0 3 3
Dsus4   x x 0 2 3 3
C9/12   x 3 2 0 3 3
Suggest correction
Give kudos to tab author, rate the tab!
1 2 3 4 5
comments
print report bad tab
guest
You may want to rate the tab now too:
select rating
Wanna post a correction for this tab? Suggest correction