Oops, an error
Loading. Please wait.

Frío Frío Tab

230 views 1 this week
no commentswrite comment
1 2 3 4 5
3 more votes to show rating
add to favorites
launch autoscroll
font size
0
reset
how to read this tab
guitar tuner
Autoscroll
slow
fast
+/-
esc
set tempo
stop
Help us to improve Ultimate-Guitar.com Take our survey!
×
ft. Romeo Versión video oficial de Santo Domingo.

-Juan Luis Guerra:

Tu amor es tan completamente tierno
forjado de recue?eerdos
y sin saber, es cielo en la ventana
que me abre la mañanaaa?aaa?aaa?

E[-----------2v--------------0-----------------]
B[---------4----4-2-0-0----2---2-0-0-----------]
G[---1-3-4--------------3------------2---------]
D[-4-----------------------------------4-s-6-6-]
A[---------------------------------------------]
E[---------------------------------------------]

E[----------------------------------------------------------------------]
B[-2-2-2-2-4-s-5-5-5-4-2-0-0--0-0-0-2-0-0-------------------------------]
G[----------------------------------------3-s-1-s-3---------------------]
D[--------------------------------------------------7-s-4-s-7-4-s-2-s-4-]
A[----------------------------------------------------------------------]
E[----------------------------------------------------------------------]

Tu amor me parte en dos el occidente
me clava de repe...eente
y me convierte en masa que se amolda
a una ilusión ardienteee...

E[---------------------------0-------------------]
B[---------4-4--2-0-0-0----2---2-0-0-------------]
G[-4-4-4-4--------------3------------2-s-4-s-2-1-]
D[-----------------------------------------------]
A[-----------------------------------------------]
E[-----------------------------------------------]

E[------------------------------------0---------------]
B[-2-2-2-2-2-4-s-5-5-5-4-2-0-0--0-0-0---0-0-----------]
G[------------------------------------------3-s-1-s-3-]
D[----------------------------------------------------]
A[----------------------------------------------------]
E[----------------------------------------------------]

(Pre-estribillo)

Dime si mastico el verde menta de tu voz
o le pego un parcho a mi alma

E[-0-0-0-0-0--------------------0-0-0-0-0---------]
B[-----------4-4-4-4-4-2------------------4-4-4-2-]
G[-----------------------3-1----------------------]
D[---------------------------4--------------------]
A[------------------------------------------------]
E[------------------------------------------------]

átame al pulgar derecho de tu corazón
y dime como está mi amor en tu amor

E[-0-------------------------0-0-0-0-0-0-----------]
B[-----------4-4-2-----------------------4-4-2---2-]
G[---1-1-1-1-------3-1-3-1---------------------4---]
D[-------------------------4-----------------------]
A[-------------------------------------------------]
E[-------------------------------------------------]

(Estribillo)

Frío, frío, como el agua del río,
o caliente como agua de la fuente

E[-0---------------------2------------0-------------]
B[--4-0-0--0-0-2-0---------4-2-2--2-2---4-2---------]
G[-----------------3-1---------------------4v-s-6-6-]
D[---------------------4----------------------------]
A[--------------------------------------------------]
E[--------------------------------------------------]

tibio, tibio, como un beso que calla
y se enciende si es que acaso le quieres

E[----------------------------------------------------------------------]
B[-2-2-0-0--0-0-2---------4-4-4-2-4-s-5-5-5-4-2-------------------------]
G[--------------------1-------------------------4-s-3-s-1-s-3-s-1-s-3-4-]
D[----------------4-4---4-----------------------------------------------]
A[----------------------------------------------------------------------]
E[----------------------------------------------------------------------]

(Intermedio)

***************************************************************************

(en caso de "ft. Romeo" sube UN tono = capo en 2do traste).

-Romeo:

Tu amor despierta y lava su carita
de rosas me salpica
y sin saber es una vía láctea
que gira y me da vida

E[---------------------------0-------------------]
B[---------4-4--2-0-0-0----2---2-0---------------]
G[---1-3-4--------------3----------2-2-s-4-s-2-1-]
D[-4---------------------------------------------]
A[-----------------------------------------------]
E[-----------------------------------------------]

E[----------------------------------0-----------------------------------]
B[---2-2-2-4-s-5-5-4-2-0-0-0--0-0-0---0-0-------------------------------]
G[-1--------------------------------------3-s-1-s-3---------------------]
D[--------------------------------------------------7-s-4-s-7-4-s-2-s-4-]
A[----------------------------------------------------------------------]
E[----------------------------------------------------------------------]

Tu amor lo guardo dentro de mis ojos
como una lagrimi...iita
y no los llooro para que no salgan
tus besos de mi vista

E[------------------------------0-------------------]
B[--------------------------2-2---2-0---------------]
G[-----------8-8-6-4-4-3-3------------2-2-s-4-s-2-1-]
D[-4-s-9-9-9----------------------------------------]
A[--------------------------------------------------]
E[--------------------------------------------------]

E[--------------------------------0---------------]
B[-----1-2-s-5-5-4-2-0-0-0--0-0-0---0-0-----------]
G[-1-3----------------------------------3-s-1-s-3-]
D[------------------------------------------------]
A[------------------------------------------------]
E[------------------------------------------------]

Dime si mastico el verde menta de tu voz
o le pego un parcho a mi alma

E[-0-0-0-0-0--------------------0-0-0-0-0----------]
B[-----------4-4-4-4-4-2-------------------4-4-4-2-]
G[-----------------------3-1-----------------------]
D[---------------------------4---------------------]
A[-------------------------------------------------]
E[-------------------------------------------------]

átame al pulgar derecho de tu corazón
y dime como está mi amor en tu amor

E[-0-------------------------0-0-0-0-0-0-----------]
B[-----------4-4-2-----------------------4-4-2---2-]
G[---1-1-1-1-------3-1-3-1---------------------4---]
D[-------------------------4-----------------------]
A[-------------------------------------------------]
E[-------------------------------------------------]

-Juan Luis Guerra y Romeo:

Frío, frío como el agua del río
o caliente como agua de la fuente

E[-0---------------------2------------0-------------]
B[--4-0-0--0-0-2-0---------4-2-2--2-2---4-2---------]
G[-----------------3-1---------------------4v-s-6-6-]
D[---------------------4----------------------------]
A[--------------------------------------------------]
E[--------------------------------------------------]

tibio, tibio como un beso que calla
y se enciende si es que acaso le quieeeeeres...

E[---------------------------------------------------------------------]
B[-2-2-0-0--0-0-2---------4-5-4-2--4-s-5-5-5-4-2-----------------------]
G[--------------------1--------------------------4-s-3-s-1-s-3-1-s-3-4-]
D[----------------4-4---4----------------------------------------------]
A[---------------------------------------------------------------------]
E[---------------------------------------------------------------------]

-Romeo:

Pudiera ser un farolito
y encender tu luz
(tu luz, tu luz? para encender tu luz...)

-Juan Luis Guerra:
hasta que quieras tú

E[---2-0------------------------------------------------------------]
B[-0-----4-2-0-2-4-0--2-4-2-------------------0---------------------]
G[----------------------------1----1---1--1-3---3---1-s-9v-13v-11v)-]
D[--------------------------4---(4---4------------4-----------------]
A[------------------------------------------------------------------]
E[------------------------------------------------------------------]

E[-------------]
B[-------------]
G[-1-3-4-3---1-]
D[---------4---]
A[-------------]
E[-------------]

Frío, frío como el agua del río
o caliente como agua de la fuente

E[-0---------------------2------------0-------------]
B[--4-0-0--0-0-2-0---------4-2-2----2---4-2---------]
G[-----------------3-1---------------------4v-s-6-6-]
D[---------------------4----------------------------]
A[--------------------------------------------------]
E[--------------------------------------------------]

tibio, tibio como un beso que calla
y se enciende si es que acaso le quieeres

E[---------------------------------------------------]
B[-2-2-0-0--0-0-2---------4-5-4-2--4-s-5-5-5-4-2-0-2-]
G[--------------------1------------------------------]
D[----------------4-4---4----------------------------]
A[---------------------------------------------------]
E[---------------------------------------------------]

Frío, frío como el agua del río
o caliente como agua de la fuente

E[-0---------------------2------------0--------------]
B[--4-0-0--0-0-2-0---------4-2-2----2---4-2----------]
G[-----------------3-1----------------------4v-s-6-6-]
D[---------------------4-----------------------------]
A[---------------------------------------------------]
E[---------------------------------------------------]

tibio, tibio a mi viene, como un beso que calla
y se enciende si es que acaso le quieeeeeres

E[-2-s-4-2------2----------------]
B[--------2-2-4----0-0-2---------]
G[---------------------------1---]
D[-----------------------4-4---4-]
A[-------------------------------]
E[-------------------------------]

E[---------------------------------------------]
B[-4-5-4-2-4-s-5-5-5-4-2-----------------------]
G[-----------------------4-s-3-s-1-s-3-1-s-3-4-]
D[---------------------------------------------]
A[---------------------------------------------]
E[---------------------------------------------]
Suggest correction
Give kudos to tab author, rate the tab!
1 2 3 4 5
comments
print report bad tab
guest
You may want to rate the tab now too:
select rating
Wanna post a correction for this tab? Suggest correction