Oops, an error
Loading. Please wait.

La Llave De Mi Corazón Bass Tab

109 views 1 this week
no commentswrite comment
1 2 3 4 5
3 more votes to show rating
add to favorites
launch autoscroll
font size
0
reset
guitar tuner
×
Best way to learn
"La Llave De Mi Corazón"
Autoscroll
slow
fast
+/-
esc
set tempo
stop
Tablatura para bajo por Gabyscon


Eperar 16 tiempos

Main
G|------------------------------
D|--7------------7------9--7----
A|-----7-7--8-10-----7----------
E|------------------------------ x2

verso
G|------------------------------
D|------------------------------
A|-----7-5-------7-5-5----------
E|--5---------5----------------- x2

G|------------------------------
D|------------------------------
A|--5--------5-5----------------
E|-----5-5-------5-5-5----------

G|------------------------------
D|------------------------------
A|-----7-5-------7-5-5----------
E|--5---------5-----------------

Pre coro
G|------------------------------
D|------------------------------
A|--7--7--7---5-5--5------------
E|------7--------5----5~/------- x2

Main x1

Verso x1

Solo quiero?
G|-------------------------------------
D|-------------------------------------
A|--3----3-----3--5------5-------------
E|---3-3---3-3------5-5------5555555---

Main x1

Lo mismo que el Main pero en re
G|------------------------------
D|------------------------------
A|--5-----------5----7--5-------
E|-----5-5--6-8----5------------ x2

Main x1

Pre coro x1

Verso x1

Pre coro x1

Intermedio (Dance?) no hay bajo

Pre coro x1

Verso x1

Pre coro x1

Solo quiero? x1

Main x1

Pre coro x1

Your so sweet?
G|--9--12-----7-8-9--12--7--8---
D|--7--10-----5-6-7--10--5?-6---
A|------------------------------
E|------------------------------ x4

Pre coro x1

Main x1

Lo mismo que el Main pero en re
G|------------------------------
D|------------------------------
A|--5-----------5----7--5-------
E|-----5-5--6-8----5------------

Main x1

Pre coro x1

FIN
Suggest correction
Give kudos to tab author, rate the tab!
1 2 3 4 5
comments
print report bad tab
guest
You may want to rate the tab now too:
select rating
Wanna post a correction for this tab? Suggest correction