Oops, an error
Loading. Please wait.

Mi Bendición Chords

version 3
version 3

Whole song

446 views 1 this week
no commentswrite comment
1 2 3 4 5
3 more votes to show rating
add to favorites
×
Save as Personal and add changes to this tab that will be seen only by you. Learn more ›
×
You can save this tab as Personal to edit and correct it or add notes. All changes will be seen only by you. Learn more »
save as personal
new!
launch autoscroll
font size
0
reset
transpose
0
reset
simplify chords
display chords
guitar tuner
Autoscroll
slow
fast
+/-
esc
set tempo
stop
Strumming
There is no strumming pattern for this song yet. and get +5 IQ
Desde hace tiempo quería compartir los acordes correctos de esta gran canción.
Las otras versiones tienen algunos acordes correctos,
pero no están completas del todo.
Esta versión es 100% correcta.
Casi todos los acordes se tocan en tres tiempos, es decir, se toca el bajo,
luego la cuerda menos grave que le sigue y al final las dos cuerdas más agudas.
En el Dm quiten ?pull off? el dedo medio en la segunda cuerda.
En la parte del coro, el arpegio cambia.
Escuchen la canción y encontrarán el cambio de ritmo.
Disfruten.


INTRO
e|--x---------8--7------------x---------x----3--------3--|
B|--5--6-s-8------8--5--------4--6-s-8--4----3-----3-----|
G|--5-------------------7--5--5---------5----4--4--------|
D|--5-------------------------6---------5----x-----------|
A|--3---------0---------------x---------x----x-----------|
E|--x-------------------------4---------4----4-----------|

O en acordes:   Cmaj7 A* G# G7

VERSO1
Cmaj7         Dm*         Em*      D#m*
Dicen que las flores no dejaban de cantar
   Dm        G7
tu nombre, tu nombre cariño

Cmaj7         Dm*         Em*         D#m*
Que las olas de los mares te hicieron un chal
   Dm       E7
de espuma, de nubes y lirios

VERSO2
A*        A*/G#      A*/G       (4ta cuerda|--7--6--5--|)
Y la luna no se convenció
D7                 (Sobre el mismo acorde en la 3ra cuerda|--8--7--|)
Y bajo a mirarte el corazón
Cmaj7        Dm*           Em*       D#m*
Y al mirarte dijo que no había visto un sol
  Dm          G7                F
radiante, mas bello que mi bendición

CORO
G/F      Em7      Gm*         C7     F
Tenerte, besarte, andar de la mano contigo
G/F       Em7      Gm*         C7           Fm
Mi cielo, mirarte, decirte un te quiero al oído
Em*           Dm-G7        Cmaj7
yo te lo digo,     que bendición

VERSO1
Dicen que las palmas aplaudían al oír
tu pasos, tus pasos cariño
Que los ríos salen de su cauce al contemplar
tus ojos, tus ojos divinos

VERSO2
Y un lucero no se convenció
Y bajo a mirarte el corazón
Y al mirarte dijo que no había visto luna
llena, mas bella que mi bendición

CORO
Tenerte, besarte, andar de la mano contigo
Mi cielo, mirarte, decirte un te quiero al oído
yo te lo digo, que bendición

VERSO3
D#*              F#*            C#
Cuando me hablas oigo un coro de amor
        A*
para dos
G#    C#7           C#m7/5
El falsete de un te quiero pegado a
   G7           F
tu voz, que bendición

CORO
Tenerte, besarte, andar de la mano contigo
Mi cielo, mirarte, decirte un te quiero al oído
yo te lo digo, que bendición


 Cmaj7 Dm* Em* D#m* Dm G7 E7 A* D7 G/F Em7 Gm* C7 Fm D#* F#* C# G# C#7 C#m7/5
e|--x--x---x---x----x--3--x--x---x---3--0--x---3---x--x---x---x--x--5---x--|
B|--5--6---8---7----6--3--5--5---7---3--3--3---5---9--8---7---8--4--4---6--|
G|--4--5---7---6----7--4--7--5---5---0--0--3---3--10--8---7---9--5--5---5--|
D|--5--3---5---5----7--3--6--5---7---0--2--3---5--10--6---6--10--6--4---6--|
A|--3--5---7---6----5--5--7--x---5---0--2--x---3---8--8---x--10--6--5---5--|
E|--x--x---x---x----x--3--x--5---x---1--0--3---x---x--x---6---8--4--4---x--|
Suggest correction
Give kudos to tab author, rate the tab!
1 2 3 4 5
comments
print report bad tab
guest
Wanna post a correction for this tab? Suggest correction