Oops, an error
Loading. Please wait.

Tú Tab

76 views 1 this week
no commentswrite comment
1 2 3 4 5
3 more votes to show rating
add to favorites
launch autoscroll
font size
0
reset
how to read this tab
guitar tuner
×
Best way to learn
""
Autoscroll
slow
fast
+/-
esc
set tempo
stop
Intro (x2)
   E                     C#m7
e|-------------------------------------------------|
B|---0-----0-------0----------4-----4-------4------|
G|-1-----1-------1-----1----6---4-6---4-4-6---4-6--|
D|-2---4-2---4-4-2---4-2----4-----4-------4-----4--|
A|-------------------------------------------------|
E|-0-----0-------0-----0---------------------------|

  F#m                      B7
e|-------------------------------------------------|
B|---2-----2-------2----------2-----2-------2------|
G|-2---1-2---1-1-2---1-2----2-----2-------2-----2--|
D|-2-----2-------2-----2----4---6-4---6-6-4---6-4--|  
A|--------------------------2-----2-------2-----2--|
E|-2-----2-------2-----2---------------------------|


La segunda vez que repite la intro hay otra guitarra
con lo siguente...

   E         C#m7       F#m        B7       
e|-----12-11---------------------------------------|
B|-----------12-----10-9--------7-9-7--------------|
G|-----------------------9-------------------------|
D|-------------------------------------------------|
A|-------------------------------------------------|
E|-------------------------------------------------|


E
 Tú, mientras más lo pienso
C#m7
 tú, llenaste mi tiempo
F#m                     B7
 tú, la razón que me haces ser feliz

¿Qué más puedo yo pedir?


E
 Tú, mil poemas tiernos
C#m7
 tú, todo mi recuerdo
F#m                   B7
 tú, te sumerges con tu cuerpo en mi
                  C#m7      
¿Qué más puedo yo sentir?


   C#m7/A
Tú, lo que más extraño
E (7mo traste)
 tú, mi mejor regalo


E                       C#m7      
 Tú en las horas de amor eterno
                       F#m
Tú cuando hablo tú cuando sueño

tú en las noches que trae el viento
  B7
todos mis versos mientras más los pienso


E                      C#m7
 Tú en la lluvia gotas de cielo
                     F#m
tú en la orilla de mi silencio

Tú mi ternura mi compañero
    B7
*Lo que más quiero mientras más lo pienso


E
 Tú, mi canción desnuda
tú, mi anhelo mi furia
tú, la razón que me hace ser feliz
¿Qué más puedo yo pedir?

Tú todo lo que callo
tú mi abecedario
tú te sumerges con tu cuerpo en mi
¿Qué más puedo yo sentir?


   C#m7/A
Tú, lo que más extraño
E (7mo traste)
 tú, mi mejor regalo

CORO

  B7             C    C7              F       
* Tú lo que busco lo que mas quiero
Suggest correction
Give kudos to tab author, rate the tab!
1 2 3 4 5
comments
print report bad tab
guest
You may want to rate the tab now too:
select rating
Wanna post a correction for this tab? Suggest correction