Oops, an error
Loading. Please wait.

Visa Para Un Sueño Bass Tab

172 views 6 this week
no commentswrite comment
1 2 3 4 5
3 more votes to show rating
add to favorites
launch autoscroll
font size
0
reset
guitar tuner
Autoscroll
slow
fast
+/-
esc
set tempo
stop
Help us to improve Ultimate-Guitar.com Take our survey!
×
G |---------------------------------------------------------|
D |--3?-3----3---------3---3-----3------------3-------------|
A |--------1---1-1---1---1-----3---3--6-5-3-6---3---3-------|
E |---------------1----------5--------------------5---------|

G |--------------------|------------------------------------|
D |--------------3-----|------------3-------------------3---|
A |--6-5-3-5-6-----3---|--1---1---1---1-----1---1-1---3---3-|
E |------------6-----5-|----1---1--------1----1-----5-------|

G |----------------------------------|----------------------|
D |---------3--------------------3---|----------------------|
A |-6-5-3-6---3---3--6-5-3-5-6-----3-|--1---1---1---1---1---|
E |-------------5--------------6-----|----1---1---1---1---1-|

G |-----------------------------------------------|
D |---3---3-------------3-------------------3-----|
A |-1---------5-6-5-6-6---3---3-6-5-3-5-6-----3---|
E |-----1---1---------------5-------------6-------|

G |-------------------------------------------------------|
D |------------3-------------------3-------------3--------|
A |--1---1---1---1-----1---1-1---3---3--6-5-3-6----3---3--|
E |----1---1---------1---1------5--------------------5----|

G |--------------------|------------------------------------|
D |--------------3-----|------------3-------------------3---|
A |--6-5-3-5-6-----3---|--1---1---1---1-1---1---1-1---3---3-|
E |------------6-----5-|----1---1--------1----1-----5-------|

G |----------------------------------|----------------------|
D |---------3--------------------3---|----------------------|
A |-6-5-3-6---3---3--6-5-3-5-6-----3-|--1---1---1---1---1---|
E |-------------5--------------6-----|----1---1---1---1---1-|

G |------------------------------------------------|
D |---3---3-------------3-------------------3------|
A |-1---------5-6-5-6-6---3---3-6-5-3-5-6-----3----|
E |-----1---1---------------5-------------6--------|


G |--------------------------------------|
D |----------------3----------------3----|
A |-1-1--0-0------------6-5-3-5-6-----3--|
E |-----------3-3----1------------6------|
G |----------------------------------------|
D |------------------3----------------3----|
A |-1-5/7--0-0------------6-5-3-5-6-----3--|
E |-------------3-3----1------------6------|


G |-------------------------------------|
D |---3---3------------------------3----|
A |-1---1----0-0-----5-6-5-3-5-6----3---|
E |---------------3--------------6---5--|

Esto último se repite varias veces,
pero de repente se salta a otras cosas
que ya están tabuladas? escucha la canción?
si no los encuentras  no importa, esto último
encaja perfectamente en la armonía de la parte
final, el resto son puras mañas del bajista.
Suggest correction
Give kudos to tab author, rate the tab!
1 2 3 4 5
comments
print report bad tab
guest
You may want to rate the tab now too:
select rating
Wanna post a correction for this tab? Suggest correction